Song name
# A B C D E F G H I J K L M N O P Q R S T U V W X Y Z

Talk Show - Wash Me Down tab

-------------------------------------------------------------------------------
                             Wash Me Down - TALK SHOW
-------------------------------------------------------------------------------

Tabbed by: KnuckleChildren
E-mail: danreid1977@optusnet.com.au

Tuning: Standard


Intro/verse: (repeat)

    Emaj7                         E7  
e|----------------------------|---------------------------|
B|---9---9---9----9---9-9-9---|--9---9---9----9---9-9-9---|
G|---8---8---8----8---8-8-8---|--7---7---7----7---7-7-7---|
D|---9---9---9----9---9-9-9---|--9---9---9----9---9-9-9---|
A|---7---7---7----7---7-7-7---|--7---7---7----7---7-7-7---|
E|---0---0---0----0---0-0-0---|--0---0---0----0---0-0-0---|


    F#m / G#m / A              F#m / G#m / A / F#m / Gm
e|------------- ------------|-----------------------==---|
B|---7---7/9---5---5--5-5---|---7---7/9---5----7----8----|
G|---6---6/8---6---6--6-6---|---6---6/8---6----6----7----|
D|---7---7/9---7---7--7-7---|---7---7/9---7----7----8----|
A|-------------0---0--0-0---|-------------0--------------|
E|--------------------------|---------------------=------|


   Into the chorus, the second half of the above goes:
e|--------------------------|---------------------------|
B|---7---7/9---5---5--5-5---|---7---7/9---5---5--5-5----|
G|---6---6/8---6---6--6-6---|---6---6/8---6---6--6-6----|
D|---7---7/9---7---7--7-7---|---7---7/9---7---7--7-7----|
A|-------------0---0--0-0---|-------------0---0--0-0----|
E|--------------------------|---------------------------|




   Chorus:

     F#m                          Bsus2

e|---2---2---2----2---2-2-2---|---2---2---2----2---2-2-2---|
B|---2---2---2----2---2-2-2---|---2---2---2----2---2-2-2---|
G|---2---2---2----2---2-2-2---|---4---4---4----4---4-4-4---|
D|---4---4---4----4---4-4-4---|---4---4---4----4---4-4-4---|
A|---4---4---4----4---4-4-4---|---2---2---2----2---2-2-2---|
E|---2---2---2----2---2-2-2---|----------------------------|


     E                            E7

e|---0---0---0----0---0-0-0---|---0---0---0----0---0-0-0---|
B|---0---0---0----0---0-0-0---|---3---3---3----3---3-3-3---|
G|---1---1---1----1---1-1-1---|---1---1---1----1---1-1-1---|
D|---2---2---2----2---2-2-2---|---2---2---2----2---2-2-2---|
A|---2---2---2----2---2-2-2---|---2---2---2----2---2-2-2---|
E|---0---0---0----0---0-0-0---|---0---0---0----0---0-0-0---|



That's all of the song folks! Just verse and chorus riffs in this nice liitle tune.

No solo, sorry, I'll try to add that shortly. Also, the verse riff is played behind the solo.

I tried to accurately tab the rhythm of the song, I hope it helps.


Any queries, e-mail me.


Enjoy! \m/



************************************

| /   slide up
| \   slide down
| h   hammer-on
| p   pull-off
| ~   vibrato
| +   harmonic
| x   Mute note
| b   Bend
| pb  Pre-bend
| br  Bend release
| pbr Pre-bend release
| brb Bend release bend

************************************
Tap to rate this tab
 
# A B C D E F G H I J K L M N O P Q R S T U V W X Y Z