Talking Heads - The Lady Dont Mind chords

Highlighted       Show chord diagrams
---------------------------------------------------------------------------
                The Lady Don't Mind – Talking Heads
---------------------------------------------------------------------------
Tabbed by: maguri
Tuning: Standard

Talking Heads
The Lady Don't Mind (1985)
(Chris Frantz/David Byrne/Jerry Harrison/Tina Weymouth)

From: "Little Creatures"


---------------------------------------------------------------------------

INTRO
      1 + 2 + 3 + 4 +  1 + 2 + 3 + 4 +  1 + 2 + 3 + 4 +  1 + 2 + 3 + 4 +  
e--3-/5---------------|--------------5-\3---------------|----------------|
B--3-/5---------------|--------------5-\3---------------|----------------|
G--4-/5---------------|--------------5-\4---------------|----------------|
D--5-/7---------------|--------------7-\5---------------|----------------|
A----|----------------|----------------|----------------|----------------|
E----|----------------|----------------|----------------|----------------|

---------------------------------------------------------------------------

INTRO

(guitar + keyboard)
| Am | % | G | % | 

(full band)
| Am | % | G | % | 
| Am | % | G | % | 
| Am | % | G | % | 


VERSE
Am                                         G
 Last time she jumped out the window, well, she only turned and smiled 
Am                                                 G
 You might think she would say something, but you'd have to wait a while


CHORUS
         Am
Well the lady don't mind
                G
No, no, no, the lady don't mind
        Am
She just turns her head and disappears,
 G
I kinda like that style


VERSE                                    
Am                                       G
 Little boat that floats on a river, it's drifting through a haze
Am                                         G
 She floats by whenever she wants to, well, there she goes again


CHORUS
              Am
Well, it's no trouble at all
           G
No, no, no trouble at all
     Am
Well, what she doesIs all right with me, 
   G                           [G G#]
And I kinda like that style


MIDDLE 8
Am
 Come on, come on, I go up and down
G
 I like this curious feeling 
Am
 I know, I see, it's like make believe 
G
 Cover your ears so you can hear what I'm saying
Am                                     G
 I'm not lost but I don't know where I am I got a question
Am
 All right, all right, this is what we like
G
 Who knows, who knows, what I'm thinking


INTERLUDE
| Am | % | G | % | 
| Am | % | G | % | 


VERSE
Am
 She says love is not what she's after, 
   G
And everyone knows
Am
 Each time she looks in the mirror,
G
 She lets her feelings show


CHORUS
         Am
Well the lady don't mind
                G
No, no, no, the lady don't mind
     Am
Well, what she says is all right by me,
   G                           [G G#]
And I kinda like that style


MIDDLE 8
Am
 Uh-oh, uh-oh, here we go again
G
 I don't know, I don't know what I'm sayin'
Am
 Hey man, hey man, I sure don't feel the same
G 
 She likes to say what she's feeling
Am                       G
 Hey, did I get a big surprise, I know you think so
Am
 Come on, come on, she says anything
G
 Who knows, who knows, what she's thinking


OUTRO
| Am | % | G | % | 
| Am | % | G | % | 

Uh-oh, uh-oh

(repeat and fade)
Tap to rate this tab
 
# A B C D E F G H I J K L M N O P Q R S T U V W X Y Z