Guitaretab - guitar tabs
Song name
# A B C D E F G H I J K L M N O P Q R S T U V W X Y Z

Talking Heads - This Must Be The Place Naive Melody tab

------------------------------------------------------------------------
	  THIS MUST BE THE PLACE (NAIVE MELODY) - Talking Heads
------------------------------------------------------------------------
Tabbed by: yermej
Email: yermej@gmail.com

Tuning: DADGBe (dropped D)

This is my take on this Talking Heads classic. This repeats for the 
entire song - all eighth notes, about 110 bpm. The sixth string notes 
sound best staccato. It's not in the right key, but sounds good on solo 
guitar. Use a capo somewhere if you want. Email yermej@gmail.com with questions/comments.

[ Tab from: http://www.guitaretab.com/t/talking-heads/65541.html ]
e-------||----------------------------------------------------||--------
B-------||---------0-----------2-----------3-----------2------||--------
G---2:--||*--------1-----------2-----------2-----------2-----*||--------
D---4:--||*--------2-----------2-----------4-----------2-----*||--------
A-------||------------0-----------2-----------0-----------2---||--------
D-------||---2--2--------4--4--------0--0--------4--4---------||--------
                                                                        

========================================================================
==               Created with BUCKET O' TAB for Windows               ==
==                  For more info email gse@his.com                   ==
========================================================================
Related for This Must Be The Place Naive Melody tab
×
This Must Be The Place Naive Melody