Song name
# A B C D E F G H I J K L M N O P Q R S T U V W X Y Z

Tall Ships - T 0 tab

-------------------------------------------------------------------------------
                                       T=0 - Tall Ships
-------------------------------------------------------------------------------
Tabbed by: SomaGuye
E-mail: nintymaniac@hotmail.co.uk

Tuning: E standard

This song only has a couple of guitar parts and they aren't very difficult to
hear, so here is just each part tabbed out, and you can listen to the song for
the exact phrasing and order.

This is the main riff repeated throughout most of the song.

e--------------------|
B--------------------|
G----------------14--|
D---------14---------|
A-------------15-----|
E--13--13------------|

Underneath the main riff at parts he just plays the same as the main riff, but
omitting the last note and also an octave down.

e--------------------|
B--------------------|
G--------------------|
D-------2------------|
A----------3---------|
E--1--1--------------|

This little flourish gets played at the end of a few main passages.

e--------------------|
B--------------------|
G-----------14-------|
D-----14-------14----|
A--------15-------15-|
E--13----------------|

These are the clean chords that get played in the mid section.

e--------------------|
B--------------------|
G------5---7---------|
D--3---5---7---------|
A--3---3---5---------|
E--1-----------------|
Tap to rate this tab
 
# A B C D E F G H I J K L M N O P Q R S T U V W X Y Z