Song name
# A B C D E F G H I J K L M N O P Q R S T U V W X Y Z

Tall Ships - Books chords

Highlighted       Show chord diagrams
-------------------------------------------
           BOOKS - Tall Ships
-------------------------------------------

Tuning: Standard

Capo on 6th fret

Chords:
e|-----0-----0------3-----3---0-----0-----|
B|-----1-----1------1-----0---1-----3-----|
G|-----0-----0------0-----0---2-----4-----|
D|-----2-----0------0-----0---3-----5-----|
A|-----3-----3------2-----2---0-----5-----|
E|-----x-----x------3-----3---x-----0-----|
       C    Cadd9  Cmaj9  G  Fmaj7  G6

Intro: C Cadd9 Cmaj9 G

C                             Cadd9
God I'm scared to think back
Fmaj7                        
About everything that has come before me
Cmaj9                       G
Our time and future histories
C                                 Cadd9
My I've wandered this library for years now
Fmaj7               Cmaj9               G
Killing time whilst time slowly killed me

C
But I know
C     Cadd9      Cmaj9 G
Time, time is precious
Fmaj7                G6
And time will forget us
C         Cadd9      Cmaj9 G
And time, time is precious
Fmaj7                G6 C
And time will forget us.

C     Cadd9      Cmaj9 G     
Time, time is precious
Fmaj7                G6 C
And time will forget us
Tap to rate this tab
# A B C D E F G H I J K L M N O P Q R S T U V W X Y Z