Song name
# A B C D E F G H I J K L M N O P Q R S T U V W X Y Z

Taller Para Ninos - Mario Bros Tres tab

Bueno esta cancion es muy muy simple
la afinacion es estandar EADGBE

Intro:
e|------------------------------------------------------------|
B|------------------------------------------------------------|
G|------------------------------------------------------------|
D|-----5-5-3-3-2-2-----5-5-3-3-2-2----5-5-3-3-2-2-5-5-3-3-2-2-|
A|-3-3-------------0-0----------------------------------------|
E|---------------------------------1-1------------3-3---------|

Verso:
e|-------------------------------------------------------------------|
B|-------------------------------------------------------------------|
G|-------------------------------------------------------------------|
D|-5-5-5-5-5-5-5-5-5-------------------------------------------------|
A|-3-3-3-3-3-3-3-3-3-7-7-7-7-7-7-7-7-3-3-3-3-3-3-3-3-5-5-5-5-5-5-5-5-|
E|-------------------5-5-5-5-5-5-5-5-1-1-1-1-1-1-1-1-3-3-3-3-3-3-3-3-|
PM ..................................................................

aqui deja sonar las cuerdas
e|----------------------------------------------------|
B|----------------------------------------------------|
G|-5--------------------------------------------------|
D|-5---------------7---------------3----------------5-|
A|-3---------------7---------------3----------------5-|
E|-----------------5---------------1----------------3-|

Coro
e|-----------------------------------------|
B|-----------------------------------------|
G|------------------------5-5-5-5-5-5-5-5--|
D|-3--3--3--3--5--5--5--5-5-5-5-5-5-5-5-5--|
A|-3--3--3--3--5--5--5--5-3-3-3-3-3-3-3-3--|
E|-1--1--3--3--5--5--5--5------------------|

Outro

e|------------------------------------------------------|
B|------------------------------------------------------|
G|----------------------------------------------------5-|
D|----------------------------------------------------5-|
A|-3-3-3-3-5-5-5-5---3-3-3-3-5-5-5-5--3-3-3-3-5-5-5-5-3-|
E|-1-1-1-1-3-3-3-3---1-1-1-1-3-3-3-3--1-1-1-1-3-3-3-3---|
PM:..................................................
Tap to rate this tab
# A B C D E F G H I J K L M N O P Q R S T U V W X Y Z