Song name
# A B C D E F G H I J K L M N O P Q R S T U V W X Y Z

Tallest Man On Earth - Little Brother tab

Little Brother
By The Tallest Man On Earth
Tabbed by MothScowl
Tuning: EADGBd

d|-------12--------------12--------------12------------|
B|----------12--------------12--------------12---------|
G|----12------12------11-------11------9-------9----7--|
D|-----------------------------------------------------|
A|-----------------------------------------------------|
E|-----------------------------------------------------|

d|-----------0----------------------0---4---0-------|
B|---0---1-------0------0---0---1---------------0---|
G|-------------------0------------------------------|
D|-0---0-------0---0------0---0-------0---0-------0-|
A|--------------------------------------------------|
E|---3-----3-----3-----3----3-----3-----3-----3-----|

d|-------------------------------------------0---------|
B|-1-------1-----1p0-------1---1-------1---------0-----|
G|-----2-------2--------2----------2-------2-------2---|
D|---2-------2-------2-------2---0-------0-----0-----0-|
A|-0-----0-------0-------0-----------------------------|
E|-----------------------------2-----2-------2---------|

d|-----------0-------------------0---------------------0-----------|
B|+------1-------1-----------0-------0-------------0-----------0---|
G|---2---------------2-----2-------------0-----0-----------0-------|
D|---2-----2---2-------0---0---0---2-------0---0-----0---0-------0-|
A|+0---0-----0-----0-----------------------------------------------|
E|-----------------------2-------2-----2-----3---3-----3-----3-----|

d|-----------0-----------|
B|-------1-------1------+|
G|---0---------------0---|
D|---2-----0---2-------0-| x2
A|-3---3-----3-----3----+|
E|-----------------------|

d|-----------0---------------------0--------------------0-------------|
B|-------1-------1-------------0-------0------------0--------0--------|
G|---2---------------2-----2---------------2-----2----------------2---|
D|---2-----2---2-------0---0-----0---0-------0---0-----0---0--------0-|
A|-0---0-----0-----0--------------------------------------------------|
E|-----------------------2---2-----2-----2-----2---2-----2-----2------|

d|-----------0-------------------0---------------------0-----------|
B|+------1-------1-----------0-------0-------------0-----------0---|
G|---2---------------2-----2-------------0-----0-----------0-------|
D|---2-----2---2-------0---0---0---2-------0---0-----0---0-------0-|
A|+0---0-----0-----0-----------------------------------------------|
E|-----------------------2-------2-----2-----3---3-----3-----3-----|

d|-----------0-----------|
B|-------1-------1------+|
G|---0---------------0---|
D|---2-----0---2-------0-| x2
A|-3---3-----3-----3----+|
E|-----------------------|

d|-----------0-----------------------0---------------------|
B|-------1-------1---------------0-------0------------0----|
G|---2---------------2---0---2---------------2-----2-------|
D|---2-----2---2-------0-----0-----0---0-------0---0-----0-|
A|-0---0-----0-----0---------------------------------------|
E|-------------------------2---2-----2-----2-----2---2-----|

d|---------------------0---------------------|
B|+----------------0---------------------0--+|
G|-0-----0-----0-----------0---0---0---0-----| x2
D|---0h2---0---0-----0---0-------0-----0---0-|
A|+3-----2----------------------------------+|
E|-----------3---3-----3-----3-------3-------|

d|-----------------------0--------------------------0-------------|
B|-----------------0-------------0------------1-------------1-----|
G|-------------0-------0-----0-------0----0-------0-----0-------0-|
D|-----0---0---0-----0-----0-------0------2-----0-----2-------2---|
A|---2-----0----------------------------3---3-------3-----3-------|
E|-3-----2---0---0-------0-----0----------------------------------|

d|-----------0---------------------0-------------------------------|
B|-------1-------1-------------0-------0-------------0---1---------|
G|---2---------------2-----2---------------0-----2-----------0-----|
D|---2-----2---2-------0---0-----0---0-------0---0-----0---2-----0-|
A|-0---0-----0-----0-------------------------------------3---------|
E|-----------------------2---2-----2-----2-----2---2-----------2---|

d|--------------0------------------0-------|
B|-------0------------0-----0--------------|
G|---0-------2p0----2-----0-----2p0----2---|
D|---0-----0--------------0---0----------0-|
A|-----------------------------------------|
E|-3---3-----2----0-----3-------2----2-----|

d|-----------0-------------------0---------------------0-----------|
B|+------1-------1-----------0-------0-------------0-----------0---|
G|---2---------------2-----2-------------0-----0-----------0-------|
D|---2-----2---2-------0---0---0---2-------0---0-----0---0-------0-|
A|+0---0-----0-----0-----------------------------------------------|
E|-----------------------2-------2-----2-----3---3-----3-----3-----|

d|-----------0-----------|
B|-------1-------1------+|
G|---0---------------0---|
D|---2-----0---2-------0-| x2
A|-3---3-----3-----3----+|
E|-----------------------|

d|-----------0---------------------0---------------------|
B|-------1-------1-------------0-------0------------0----|
G|---2---------------2-----2---------------2-----2-------|
D|---2-----2---2-------0---0-----0---0-------0---0-----0-|
A|-0---0-----0-----0-------------------------------------|
E|-----------------------2---2-----2-----2-----2---2-----|

d|---------------------0---------------------|
B|+----------------0---------------------0--+|
G|-0-----0-----0-----------0---0---0---0-----| x2
D|---0h2---0---0-----0---0-------0-----0---0-|
A|+3-----2----------------------------------+|
E|-----------3---3-----3-----3-------3-------|

d|-----------------------0--------------------------0-------------|
B|-----------------0-------------0------------1-------------1-----|
G|-------------0-------0-----0-------0----0-------0-----0-------0-|
D|-----0---0---0-----0-----0-------0------2-----0-----2-------2---|
A|---2-----0----------------------------3---3-------3-----3-------|
E|-3-----2---0---0-------0-----0----------------------------------|

d|-----------0---------------------0-------------------------------|
B|-------1-------1-------------0-------0-------------0---1---------|
G|---2---------------2-----2---------------0-----2-----------0-----|
D|---2-----2---2-------0---0-----0---0-------0---0-----0---2-----0-|
A|-0---0-----0-----0-------------------------------------3---------|
E|-----------------------2---2-----2-----2-----2---2-----------2---|

d|--------------0------------------0-------|
B|-------0------------0-----0--------------|
G|---0-------2p0----2-----0-----2p0----2---|
D|---0-----0--------------0---0----------0-|
A|-----------------------------------------|
E|-3---3-----2----0-----3-------2----2-----|

d|-----------0-------------------0---------------------0-----------|
B|+------1-------1-----------0-------0-------------0-----------0---|
G|---2---------------2-----2-------------0-----0-----------0-------|
D|---2-----2---2-------0---0---0---2-------0---0-----0---0-------0-|
A|+0---0-----0-----0-----------------------------------------------|
E|-----------------------2-------2-----2-----3---3-----3-----3-----|

d|-----------0-----------|
B|-------1-------1------+|
G|---0---------------0---|
D|---2-----0---2-------0-| x2
A|-3---3-----3-----3----+|
E|-----------------------|

d|-----------0-----------------------0---------------------|
B|-------1-------1---------------0-------0------------0----|
G|---2---------------2---0---2---------------2-----2-------|
D|---2-----2---2-------0-----0-----0---0-------0---0-----0-|
A|-0---0-----0-----0---------------------------------------|
E|-------------------------2---2-----2-----2-----2---2-----|

d|---------------------0---------------------|
B|+----------------0---------------------0--+|
G|-0-----0-----0-----------0---0---0---0-----| x2
D|---0h2---0---0-----0---0-------0-----0---0-|
A|+3-----2----------------------------------+|
E|-----------3---3-----3-----3-------3-------|

d|-----------------------0--------------------------0-------------|
B|-----------------0-------------0------------1-------------1-----|
G|-------------0-------0-----0-------0----0-------0-----0-------0-|
D|-----0---0---0-----0-----0-------0------2-----0-----2-------2---|
A|---2-----0----------------------------3---3-------3-----3-------|
E|-3-----2---0---0-------0-----0----------------------------------|

d|-----------0---------------------0-------------------------------|
B|-------1-------1-------------0-------0-------------0---1---------|
G|---2---------------2-----2---------------0-----2-----------0-----|
D|---2-----2---2-------0---0-----0---0-------0---0-----0---2-----0-|
A|-0---0-----0-----0-------------------------------------3---------|
E|-----------------------2---2-----2-----2-----2---2-----------2---|

d|--------------0------------------0-------|
B|-------0------------0-----0--------------|
G|---0-------2p0----2-----0-----2p0----2---|
D|---0-----0--------------0---0----------0-|
A|-----------------------------------------|
E|-3---3-----2----0-----3-------2----2-----|

d|-----------0-------------------0---------------------0-----------|
B|+------1-------1-----------0-------0-------------0-----------0---|
G|---2---------------2-----2-------------0-----0-----------0-------|
D|---2-----2---2-------0---0---0---2-------0---0-----0---0-------0-|
A|+0---0-----0-----0-----------------------------------------------|
E|-----------------------2-------2-----2-----3---3-----3-----3-----|

d|-----------0-----------|
B|-------1-------1------+|
G|---0---------------0---|
D|---2-----0---2-------0-| x4
A|-3---3-----3-----3----+|
E|-----------------------|

d|-----------0-----------------------0---------------------|
B|-------1-------1---------------0-------0------------0----|
G|---2---------------2---0---2---------------2-----2-------|
D|---2-----2---2-------0-----0-----0---0-------0---0-----0-|
A|-0---0-----0-----0---------------------------------------|
E|-------------------------2---2-----2-----2-----2---2-----|

d|---------------------0---------------------|
B|+----------------0---------------------0--+|
G|-0-----0-----0-----------0---0---0---0-----| x2
D|---0h2---0---0-----0---0-------0-----0---0-|
A|+3-----2----------------------------------+|
E|-----------3---3-----3-----3-------3-------|

d|-----------------------0--------------------------0-------------|
B|-----------------0-------------0------------1-------------1-----|
G|-------------0-------0-----0-------0----0-------0-----0-------0-|
D|-----0---0---0-----0-----0-------0------2-----0-----2-------2---|
A|---2-----0----------------------------3---3-------3-----3-------|
E|-3-----2---0---0-------0-----0----------------------------------|

d|-----------0---------------------0---------------------------------|
B|-------1-------1-------------0-------0-------------0---1-----------|
G|---2---------------2-----2---------------0-----2-----------0-------|
D|---2-----2---2-------0---0-----0---0-------0---0-----0---2-----0---|
A|-0---0-----0-----0-------------------------------------3-----------|
E|-----------------------2---2-----2-----2-----2---2-----------2---3-|

Why are you thinking again, little brother
when you know there's a story for every wrong
Well, I won't be around in the morning
Can only pray there's no harm in me moving on
to my trials and your unknown

Now there's a legion of wolves in the forest
And what might have been lost, it is there, I know
With the crazy old names, loving owners
I feel useless when I have to face alone
All your trials and my unknown

CHORUS:
And if you could just walk on by
with signs just flying around
And if this storm was just the motion
of your kid just trying out
if he could only lose these miles

Now there's a terrible light on the shading
Where you threw your insanities on a wall
Well, I can see where the dog hits the summer
I said "I believe you", forever, but you said "don't"
It's a trial for all that grows

CHORUS

Why are you drinking again, little brother
when your rambling's the hard part of loving you
You say the creek and fogs wanna drown you
But there are deeper of wells where we're going to
There's no drought in this unknown

CHORUS

And with your memories lost on a hillside
and a wind takes you further and forward now
And your world is a kite in the weather
gently tied to your hand that is pointing out
There's a sky in this unknown

CHORUS
Tap to rate this tab
# A B C D E F G H I J K L M N O P Q R S T U V W X Y Z