Song name
# A B C D E F G H I J K L M N O P Q R S T U V W X Y Z

Tallest Man On Earth - Thrown Right At Me tab

Thrown Right At Me          

The Tallest Man on Earth

Tabbed by MothScowl

Standard Tuning 

Capo at 5
                   
                             JumpLong  TheCreekSideThe
e|--------------------------|---------------------------|
B|-------------------------+|---------------------------|
G|---0---0---0-------0---0--|---------0---0-------2---2-|
D|-----2---2-------2---2----|------2---2----3---3---3---|
A|-3-----------------------+|-3-------------------------|
E|-------------3------------|---------------------------|
                                          And         O       pen
 RocksCrooked Line      TheCurls  YourHair         Days          Wide
e|-------------------------------0------------------------------------------|
B|-----------------------------6--------------------------------------------|
G|-------0---0-------0---0-------------------2---2--------2----0------0---0-|
D|-----0---0-------2---2-----6-6---6/5-----2---2---3---3-----0------2---2---|
A|-------------3-----------5-----------0-------------------------3----------|
E|-3------------------------------------------------------------------------|
               Faster
Horses   Trot          Till
e|-------------------------|
B|-----------------------1-|
G|---0---0---0---2---2-----|
D|-----2---2---3---3---3---|
A|-3-----------------------|
E|-------------------------|
             Down          You                      On 
  Sprows   Fall          But Just  Fall Laughing ToSnow     The  Ground
e|-------------------------------0------------------------------------------|
B|-----------------------------6--------------------------------------------|
G|---0---0---0-------0---0-------------------2---2--------2----0----0-----0-|
D|-----0---0-------2---2-----6-6---6/5-----2---2---3---3-----0------2---2---|
A|-------------3-----------5-----------0-------------------------3----------|
E|-3------------------------------------------------------------------------|
               Grew                          Valleys 
             You   Up    By    Playing  The        So
e|-----------------------------------------------------|
B|-----------1--------------1--------------------------|
G|-------0------------2-------------0---0--------0---0-|
D|-----2---2---3---3-----3--------0---0-------2----2---|
A|----------------------------------------3------------|
E|-3---------------------------3-----------------------|
                            Why                                So
   Wlde                 Thats                             Youre   Beuatiful
e|--------------------------------------------------------------------------|
B|-----------1--------------0-----------3--------------0--------------------|
G|-------2------------2---2-----------0--------0-----0-------0---0-----0---0|
D|-3---3---3----3---3---3---2---2---2---2---2-----2----2---2---2-----0---0--|
A|--------------------------------------------------------------------------|
E|-----------------------------------------------------------------3--------|
   Now
e|-----3p0------------1---1-------3p0---------------------|
B|---------3p0------0---0---0----------3-1------1-3b----1-|
G|---0----------------1---1-----2----------------------2--|
D|-----2---2----------------------2-----------3-----3-----|
A|-3------------2/5-----------0---------------------------|
E|------------------------------------------1-------------|

                                                And
e|------3p0---------------------------------------|
B|----------3-1-0-1p0-1p0-------------------------|
G|---0----------------------0---0---0---0---0---0-|
D|------2---------2p0-2p0-----2---2-------2---2---|
A|-3----------------------3-----------------------|
E|--------------3---------------------3-----------|
                  To               Young
   Dancin  YourBike    The Lonesome    Mare      You
e|----------------------------------------------------|
B|-----------------------1----------------------------|
G|---0---0---0---2---2-----------0---0-------0---0----|
D|-----2---2---3---3---3-------0---0-------2---2------|
A|-3-----------------------------------3--------------|
E|-------------------------3--------------------------|
     Up                  Your  Will
   Call    Her Owner   Say Heart  Be   There     You
e|-------0-----------0-----------------------------|
B|-----6-----------1-------1-----------------------|
G|---------------2-------2---2---2---0-----0-0---0-|
D|---6-6---6/5---------3---3---3-----------2---2---|
A|-5-----------0-----------------------3-----------|
E|---------------------------------3---------------|
    A
   Built   Collection  OfSacars
e|-------------------------|
B|-------1---------------1-|
G|-----------0-------2-----|
D|-----2---2---3---3---3---|
A|-3-----------------------|
E|-------------------------|
         Your              Learn           With   poss
       On      Knees     To  How   To  Count     Im I      ble
e|-------------------------------0-----------0-----------------|
B|-----------1-----------------6-----------1-------------------|
G|-------0---------0---0-----------------2-------2-------0---0-|
D|-----0---0-------2-----2---6-6---6/5---------3---3---3-------|
A|-------------3-----------5-----------0-----------------------|
E|-3-------------------------------------------------------3---|
                           Grew               The
   Trees                 You  Up    By  Climbing  Birches So
e|------------------------------------------------------------|
B|-----------------------1------------1---------1-------------|
G|-----0-0---0-------0------------2---------0-----------0---0-|
D|-----2---2-------2---2----3---3---3-----0---0-------2---2---|
A|-3----------------------------------------------3-----------|
E|-------------3------------------------3---------------------|
                           Why                             So    ti
   High                Thatís                          Youre   Beauful
e|-------------------------------------------0---------------------------|
B|-----------1-------1-----0---------------3-------0---------0---------0-|
G|-----------------------0-----------0---0-------0-------0---------0-----|
D|-3---3---3---3---3---3---2---2---2---2---2---2---2---2---2-----0---0---|
A|-----------------------------------------------------------------------|
E|-------------------------------------------------------------3---------|

Now
e|-----3p0------------1---1-------3p0---------------------|
B|---------3p0------0---0---0----------3-1------1-3b----1-|
G|---0----------------1---1-----2----------------------2--|
D|-----2---2----------------------2-----------3-----3-----|
A|-3------------2/5-----------0---------------------------|
E|------------------------------------------1-------------|

                                                And
e|------3p0---------------------------------------|
B|----------3-1-0-1p0-1p0-----------1-------------|
G|---0----------------------0---0---0---0---0---0-|
D|------2---------2p0-2p0-----2---2-------2---2---|
A|-3----------------------3-----------------------|
E|--------------3---------------------3-----------|
                  That    Pro  bably               Same           Time
   WeLive  So  Close   Weve            Seen      The BirdAt The Same
e|-----------------------------------------------------1p0------------0-----|
B|-----1-----------------1-----------------------0-1p0--------------1-------|
G|---0-0-0---0-------2-----------0---0-------0---------1----1p0---2-------0-|
D|---------2---3---3---3-------0---0-------2---2---0----------------2---2---|
A|-3-----------------------------------3------------------------0-----------|
E|-------------------------3------------------------------------------------|
                             Day               That      Who
  So lemn  ly  Scream      One    Iíll   FindJust    FriendCan   See
e|--------------------------------------------------------------------------|
B|-----------------------1-----1---------------1---------------1-----------0|
G|---2---0---0-----0-0---------0-----0-------2-----2-------0-----------0----|
D|-3---3-----------2---2---------2-------3-------3-------0---0-------2---2--|
A|-------------3-----------3-------3-----------------------------3----------|
E|---------3-----------------------------------------3----------------------|
     This     Beuty           Right
   All     Weird            Thrown  At  Me
e|-----1p0-----------------------------------------------------|
B|-1p0-------------------1-------------------------1---------1-|
G|-----1---1p0-------2---0----2---0---0--------0---------0-----|
D|-0---------------2---2----3---3------------2---2-----2---2---|
A|-------------0------------------------3----------------------|
E|----------------------------------3----------------3---------|

  Growing  By  Playing The Valleys So  Wide             AndThats
e|-----------------------------------------------------------|
B|-------1---------------1-----------1-----------1-----------|
G|---2-------0-------0---------0-0-----------2-----------2---|
D|-3---3---3-------0---0-------2---2---3---3---3---3---3---3-|
A|-------------------------3---------------------------------|
E|-------------3---------------------------------------------|
                                 So
  Why                       Youíre   Beautiful
e|-----------------------------------------------|
B|-1p0---------0-------3-p0--------0-------------|
G|---------0-------------------0-----------0---0-|
D|---2---2---2---2---2---2---2---2-------0---0---|
A|-----------------------------------------------|
E|-----------------------------------3-----------|

Now
e|-----3p0------------1---1-------3p0---------------------|
B|---------3p0------0---0---0----------3-1------1-3b----1-|
G|---0----------------1---1-----2----------------------2--|
D|-----2---2----------------------2-----------3-----3-----|
A|-3------------2/5-----------0---------------------------|
E|------------------------------------------1-------------|

                                                
e|------3p0---------------------------------------|
B|----------3-1-0-1p0-1p0-----------1-------------|
G|---0--------------------------0-------0---0---0-|
D|------2---------2p0-2p0-----2---2-------2---2---|
A|-3----------------------3-----------------------|
E|--------------3---------------------3-----------|


e|-----3p0------------1---1-------3p0---------------------|
B|---------3p0------0---0---0----------3-1------1-3b----1-|
G|---0----------------1---1-----2----------------------2--|
D|-----2---2----------------------2-----------3-----3-----|
A|-3------------2/5-----------0---------------------------|
E|------------------------------------------1-------------|

                                                
e|------3p0---------------------|
B|----------3-1-----1p0-1p0---1-|
G|---0------------0-----------0-|
D|------2-----------2p0-2p0---2-|
A|-3--------------------------3-|
E|--------------3---------------|
Tap to rate this tab
# A B C D E F G H I J K L M N O P Q R S T U V W X Y Z