Song name
# A B C D E F G H I J K L M N O P Q R S T U V W X Y Z

Tallman - Stumblepit tab

intro
e(------------)(----------------------)(----------------)
b(------------)(----------------------)(----------------)
g(----------2-)(----------------------)(----------------)
d(--333-333-2-)(----------------------)(--0002030507520-)
a(--333-333-0-)(----0---1---3---1---0-)(--0002030507520-)
D(--333-333---)(--0---0---0---0---0---)(--0002030507520-)
  pm... ...

verse is all bass

pre-chorus
e(----------------)
b(----------------)
g(----------------)
d(--0002030507520-)
a(--0002030507520-)
D(--0002030507520-)

chorus
e(------------------)
b(------------------)
g(------------------)
d(------------------)
a(------------------)
D(--7/5/4/2-0202044-)
  pm....... .......

bridge
e(---------------------)
b(---------------------)
g(---------------------)
d(----------785---7----)
a(--66536-5-----5---78-)
D(---------------------)
Tap to rate this tab
# A B C D E F G H I J K L M N O P Q R S T U V W X Y Z