Song name
# A B C D E F G H I J K L M N O P Q R S T U V W X Y Z

Tallman - Cope tab

verse
e(-----------------------------)
b(-------------------------2---)
g(-----4445554------4445553----)
d(--222-------444-2----------2-)
a(----------------2----------2-)
D(----------------2----------2-)

chorus
e(--------------------------)(---------------)
b(--------------------------)(---------------)
g(--------------------------)(--7-54-777-554-)
d(--02-2-2-220-02-2-2-220-5-)(--7-54-777-554-)
a(--02-2-2-220-02-2-2-220-5-)(--5-32-555-332-)
D(--02-2-2-220-02-2-2-220-5-)(---------------)

bridge
e(------------------)
b(------------------)
g(--44-44-44-44-2-7-)
d(--44-44-44-44-2-7-)
a(--22-22-22-22-0-5-)
D(------------------)

bridge(lead)
e(--------------)
b(--2-3-5-------)
g(--------6-4-7-)
d(--------------)
a(--------------)
D(--------------)

chorus(lead)     (x4)
e(------------------)(-----------------------------------)
b(------------------)(-----------------------------------)
g(--7-6-4---------7-)(-----------------------------------)
d(--------9997779---)(--99999999-10-10-10-10-10-10-10-10-)
a(------------------)(-----------------------------------)
D(------------------)(-----------------------------------)
Tap to rate this tab
 
# A B C D E F G H I J K L M N O P Q R S T U V W X Y Z