Song name
# A B C D E F G H I J K L M N O P Q R S T U V W X Y Z

Tally Hall - Ruler Of Everything chords

Highlighted       Show chord diagrams
-----------------------------------------------------------------------------
			     RULER OF EVERYTHING - Tally Hall
-----------------------------------------------------------------------------
Tabbed by:Murzain
Email:murzain@gmail.com

This is my first tab, i noticed that this song was nowhere so i decided to tab it out myself. 

Feel free to email me if you have questions or comments.


Tuning:Standard


"13"

     G#5   E5    F#5   B5    G#5  E5     D5    Db5  B5
e|---------------------------------------------------------------------------|
B|---------------------------------------------------------------------------|
G|---------------------------------------------------------------------------|
D|-----13----9----11---------13----9-----------------------------------------|
A|-----11----7-----9----9----11----7-----12----11---9------------------------|
E|----------------------7----------------10-----9---7------------------------|
          
      G#5   E5   F#5          G#5   E5   D5    B5
e|---------------------------------------------------------------------------|
B|---------------------------------------------------------------------------|
G|---------------------------------------------------------------------------|
D|-----13----9---11---9--7----13----9----------------------------------------|
A|-----11----7----9-----------11----7----12----9-----------------------------|
E|---------------------------------------10----7-----------------------------|


Piano Intro


This part really isn't made for guitar but its roughly this (play very lightly)

    E         Am   E        Am
e|--7-7-7-7---5/---7-7-7-7---5/----------------------------------------------|
B|--9-9-9-9---5/---9-9-9-9---5/----------------------------------------------|
G|--9-9-9-9---5/---9-9-9-9---5/----etc.-just keep repeating------------------|
D|---------------------------------------------------------------------------|
A|---------------------------------------------------------------------------|
E|---------------------------------------------------------------------------l

E
Juno was mad, he knew he'd been had

Am                           E
So he shot at the sun with a gun

Am                    E
Shot at the sun with a gun

Am               E
Shot at his wily one


Only friend  Am  F#m X2




The Verses/Chorus

E                     Bm
In the gallows or the ghetto

E                   Bm
In the town or the meadow

E
In the billows

Bm
Even over the sun

E
Every end of a time

Bm
Is another begun



               E
You understand mechanical hands

Am                    E
Are the ruler of everything

Am            E
Ruler of everything

Am                    E
I'm the ruler of everything


In the end   Am  F#m X2


                   E
Do you like how I dance

                   Am
I've got zirconium pants

               E
Consequential enough

                    Am
To slip you into a trance



                   E
Do you like how I walk?

                  Am
Do you like how I talk?

                   E
Do you like how my face

                    Am
Disintegrates into chalk?



                    E
I have a wonderful wife

                  Am
I have a powerful job

          E                    Am Am
She criticizes me for being egocentric


Fm
You practice your mannerisms

B
Into the wall

Fm
If this mirror were clearer

B
I'd be standing so tall


Fm
I saw you slobber over clovers

B
On the side of the hill

Fm
I was observing the birds

B
Circle in for the kill



I've been you

       E
I know you

                 E
Your facade is a scam



You know you're making me cry

This is the way that I am


                    E
I've been living a lie

                 E
A metamorphical scheme

                 E
Detective undercover brotherhood

Am
Objective: obscene

G#5   Am   G#5   G#5     E
Oh    no,  no,   oh     yeah


Bridge:  

E E  Bm Bm (keep playing this)

E   E
Do you hear the flibbity jibbity jibber jabber 
           Bm  Bm  
With an oh my God I've got to get out of here etc..



            E
You understand mechanical hands

Am                     E
Are the ruler of everything

Am             E
Ruler of everything

Am                    E
I'm the ruler of everything


In the end   Am  F#5


                E
Without looking down gliding around

Am                E
Like a bumbling dragon I fly

Am                       E
Scraping my face on the sky


G#5   Am   G#5  G#5      E
Oh    no,  no,   oh     yeah
Tap to rate this tab
 
# A B C D E F G H I J K L M N O P Q R S T U V W X Y Z