Song name
# A B C D E F G H I J K L M N O P Q R S T U V W X Y Z

Tamaryn - Love Fade tab

Tamaryn - Love Fade


chord shapes throughout the whole song:

      Am       Cmaj7        Em            G
e-----0---------3------------0------------0--------|
B-----1---------0------------0------------0--------|
G-----2---------0------------0------------0--------|
D-----2---------2------------2------------0--------|
A-----0---------3------------2------------2--------|
E-----0---------3------------0------------3--------|


lead (tremolo picking):

e-------------------------|
B---19--15----------------|
G-----------16--14--16----|
D-------------------------|
A-------------------------|
E-------------------------|



http://tamarynmusic.com/
Tap to rate this tab
# A B C D E F G H I J K L M N O P Q R S T U V W X Y Z