Guitaretab - guitar tabs
Song name
# A B C D E F G H I J K L M N O P Q R S T U V W X Y Z

Tame Impala - Slide Through My Fingers tab

The intro verse is just strumming the g note on low e string

Listen to the song for strumming pattern


Intro/verses

  G
E------------------------------------------------|
B------------------------------------------------|
G------------------------------------------------|  x alot
D-----------------------------------------------|
A------------------------------------------------|
E-3-3-3-3-x-3-x-3-x-3-x-3-x-3-3-----------------|


Chorus:
[ Tab from: http://www.guitaretab.com/t/tame-impala/186439.html ]
E------------------------------------------------------------------|
B------------------------------------------------------------------|
G--4--5--4----7---8--7---5---6--4------4---4--------------     x 2-|
D-5--3--5----8---6--8---6---4--6------5---3-----------------------| then back to verse
A--5--5--5----8---8--8---6---6--6------5---3-----------------------|
E-3--3--3----6---6--6---4---4-4------3---1-----------------------|
 Ive let to  much of it  slide thru my fing-ers...
Related for Slide Through My Fingers tab