Guitaretab - guitar tabs
Song name
# A B C D E F G H I J K L M N O P Q R S T U V W X Y Z

Tame Impala - Bold Arrow Of Time tab

Bold Arrow of Time - Tame Impala
from their Demos

these are the riffs played throughout the song :


E----------------------------------------------------|
B----------------------------------------------------|
G----------10---b12-10-b12-------------------------|         x4
D----/12-------------------------12--10--12----------|
A----------------------------------------------------|
E---------------------------------------------10-----|
[ Tab from: http://www.guitaretab.com/t/tame-impala/186471.html ]
E----------------------------------------------------|
B----------------------------------------------------|
G----------10---b12-10-b12-------------------------|         x2
D----/12-------------------------12--10--12----------|
A---------------------------------------------12-----|
E---------------------------------------------10-----|


E----------------------------------------------------|
B----------------------------------------------------|
G----------------------------------------------------|         x2
D----------------------------------------------------|
A-----------8-b10--8-b10---------------------------|
E----10-----------------------10-8-10---10-----------|

E----------------------------------------------------|
B----------------------------------------------------|
G-------------- ------------------------------------|       x2
D---------8-b10--8--b10-----------------------------|
A----10--------------------10-8-10-------------------|
E--------------------------------------10------------|
Related for Bold Arrow Of Time tab