Guitaretab - guitar tabs
Song name
# A B C D E F G H I J K L M N O P Q R S T U V W X Y Z

Tame Impala - Skeleton Tiger tab

Intro/ Main Riff


w/effects + distortion

[ Tab from: http://www.guitaretab.com/t/tame-impala/186503.html ]
   E       D       A       G
E------------------------------------------------|
B------------------------------------------------|
G------------------------------------------------|
D-9-9-9--7-7-7-----------12-12-12--------------|
A-7-7-7--5-5-5---7-7-7---10-10-10--------------|
E-----------------5-5-5-------------------------|


or..


   E           D         A            G
E------------------------------------------------|
B------------------------------------------------|
G------------------------------------------------|
D-----------------------------------------------|
A-14-14-14---1212-12---7-7-7---17-17-17--------|
E-12-12-12---10-10-10---5-5-5---15-15-15--------|
Related for Skeleton Tiger tab