Song name
# A B C D E F G H I J K L M N O P Q R S T U V W X Y Z

Tame Impala - Slide Through My Fingers tab

  Intro
e|--------------------------------------------------|
B|--------------------------------------------------|
G|-10-8-7-5-3s1p0-0---------------------------------|
D|--------------------------------------------------|
A|--------------------------------------------------|
E|--------------------------------------------------|

  Verses
e|--------------------------------------------------|
B|--------------------------------------------------|
G|--------------------------------------------------|    
D|--------------------------------------------------| times a lot            
A|--------------------------------------------------|    of times
E|-3333-3-3-3-3-33----------------------------------|

e|--------------------------------------------------|
B|--------------------------------------------------|
G|-8s10-10-10-10-8-7-5-7----------------------------| times 4
D|--------------------------------------------------|
A|--------------------------------------------------|
E|--------------------------------------------------|

e|--------------------------------------------------|
B|----------12-13s15s13-12-13-12--------------------|
G|-10-12-13----------------------13-12-10-13-12-----|
D|--------------------------------------------------|
A|--------------------------------------------------|
E|--------------------------------------------------|

e|--------------------------------------------------|
B|--------------------------------------------------|
G|-10-12-13-13b-------------------------------------|
D|--------------------------------------------------|
A|--------------------------------------------------|
E|--------------------------------------------------|

   Chorus
e|-3--4-6---3--4-6---4-6-4-3-1----------------------|
B|-3--4-6---4--4-6---4-6-4-3-1----------------------|
G|-4--5-7---5--5-7---5-7-5-4-2----------------------|
D|-5--6-8---5--6-8---6-8-6-5-3----------------------|
A|-5--6-8---5--6-8---6-8-6-5-3----------------------|
E|--------------------------------------------------|

Tap to rate this tab
 
# A B C D E F G H I J K L M N O P Q R S T U V W X Y Z