Song name
# A B C D E F G H I J K L M N O P Q R S T U V W X Y Z

Tame Impala - The Serpentine tab

Intro
e|--------------------------------------------------|
B|--------------------------------------------------|
G|------------7-5-----------------------------------|
D|----------------7-5~~s3---------------------------|
A|------------------------5-3-5---------------------|
D|-13~~~~~s0----------------------------------------|

Verse
e|--------------------------------------------------|
B|--------------------------------------------------|
G|-------------------5------------------------------|
D|-------------3-5s7---7s5-3-5----------------------| times 4 or something
A|---------3-5-----------------3-3-5----------------|
D|-0-0-0-0---------------------------0-0-0-0--------|

Pre-Chorus
e|--------------------------------------------------|
B|-------------6------------------------------------|
G|-------------5------------------------------------|
D|-------------4------------------------------------|
A|-0--2--3--5--5------------------------------------|
D|----------0--0------------------------------------|

Chorus
e|--------------------------------------------------|
B|--------------------------------------------------|
G|---5h7p5------------------------------------------|times 4 i think
D|---------7-6-5s3----------------------------------|
A|-----------------5-5-3----------------------------|
D|-0------------------------------------------------|

   then this 
e|--------------------------------------------------|
B|-------------------------6b-3---------------------|
G|-----------------------5--------------------------|
D|-------3---3-5---5-6-7----------------------------|
A|---3s5--------------------------------------------|
D|-0-------0-----0----------------------------------|

Bridge 
e|---------------------------------------------------------|
B|-------------------------------------------------8-10----|
G|----------------------3---3-5b-3---5b-3------7-9---------|
D|-----3-5----------3-5---5--------5------5----------------|
A|-3-5----------3-5----------------------------------------|
E|---------------------------------------------------------|
     x8                                             x7

e|---------------------------------------------------------|
B|-x-10-8--------------------5---6-8b-6---8b-6---8b-6------|
G|--------9--------------------7--------7------7------7----|
D|------------------5-7------------------------------------|
A|--------------5-7----------------------------------------|
E|---------------------------------------------------------|
                   x4
if you know the song you should figure out the rest 
Tap to rate this tab
 
# A B C D E F G H I J K L M N O P Q R S T U V W X Y Z