Song name
# A B C D E F G H I J K L M N O P Q R S T U V W X Y Z

Tame Impala - I Dont Really Mind tab

I DON'T REALLY MIND
by TAME IMPALA
from their debut LP
INNERSPEAKER.


INTRO:
|-----------------------------------------------------|
|-----------------------------------------------------|
|-----------------------------------------------------|
|-----------------------------------------------------|
|---9--9--9---9--9--9-9-9-9-9--7--7--7---7------------|
|-------------------------------------------7-7-7-7---|

VERSE:
|--------------------------------------------------------------|
|--------------------------------------------------------------|
|---11----9-----------------11----9---------9----14----12----7-|
|---11----9-----9-----11----11----9----9----9----14----12----7-|
|---9-----7-----9-----11----9-----7----9----7----12----10----5-|
|---------------7-----9----------------7-----------------------|

CHORUS:
|---------------------------------------|
|---------------------------------------|
|------------------------8-\--6-\--4----|x4
|--4-4--x-x---x-x---x-x-----------------|
|--4-4--x-x---x-x---x-x--6-\--4--\-2----|
|--2-2--x-x---x-x---x-x-----------------|

VERSE 2:

|--------------------------------------|
|--------------------------------------|
|--------------------------------------|
|----9---7---11--9---9---7---11--9-----|
|----9---7---11--9---9---7---11--9-----|
|----7---5---9---7---7---5---9---7-----|


CHORUS:
|---------------------------------------|
|---------------------------------------|
|------------------------8-\--6-\--4----|x4
|--4-4--x-x---x-x---x-x-----------------|
|--4-4--x-x---x-x---x-x--6-\--4--\-2----|
|--2-2--x-x---x-x---x-x-----------------|

TRANCE BRIDGE:
|-----------------------------------------------------------|
|-----------------------------------------------------------|
|--------------------------------8-------------8------------|
|--------------------------------9---------8---9---9---10---|
|---10----13-----10----8----9----9----10---8---9---9---10---|
|---8-----11-----8-----6----7----7----8----6---7---7---8----|

CHORUS:
|---------------------------------------|
|---------------------------------------|
|------------------------8-\--6-\--4----|x10 (fade out)
|--4-4--x-x---x-x---x-x-----------------|
|--4-4--x-x---x-x---x-x--6-\--4--\-2----|
|--2-2--x-x---x-x---x-x-----------------|


I think this is mostly correct, except I'm not sure about a few of the early chords in 
trance section, it's pretty hard tabbing crazy synths.
Tap to rate this tab
 
# A B C D E F G H I J K L M N O P Q R S T U V W X Y Z