Song name
# A B C D E F G H I J K L M N O P Q R S T U V W X Y Z

Tame Impala - Sundown Syndrome tab

-------------------------------------------------------------------------------
			     Sundown Syndrome - Tame Impala
-------------------------------------------------------------------------------
Tabbed by:RichyG
Email:rgluskie@gmail.com

Tuning:D guitar tuned (DGCFAD) 

This is how they have there guitar tuned (strings are a bit looser). You could do 
it with standard tuning just move everything up two frets

This is how they do it live. This should be pretty accurate but let me know of 
anything to make it better!!

ENJOY!!!


INTRO:

e|--4--4---6-6-6---| X 4 not really letting it ring
B|--4--4---6-6-6---|
G|--4--4---6-6-6---|
D|--4--4---6-6-6---|
A|--6--6---8-8-8---|
E|--4--4---6-6-6---|

Call this "Part A":

e|--4--4---6-6-6---| X 8 letting it ring sorta slide
B|--4--4---6-6-6---|
G|--4--4---6-6-6---|
D|--4--4---6-6-6---|
A|--6--6---8-8-8---|
E|--4--4---6-6-6---|


Verse:

e|--4--6--4--6--4--6--4--6------| One guitar plays this over and over
B|--4--6--4--6--4--6--4--6------|
G|--4--6--4--6--4--6--4--6------|
D|--4--6--4--6--4--6------------|
A|--6--8--6--8--6--8------------|
E|--4--6--4--6--4--6------------|

e|--4--6--4--6--4--6--4--6-----|  Other this over and over
B|--4--6--4--6--4--6--4--6-----|
G|--4--6--4--6--4--6--4--6-----|
D|--4--6--4--6--4--6--4--6-----|
A|--6--8--6--8--6--8--6--8-----|
E|--4--6--4--6--4--6--4--6-----|

Then back to Part A

e|--4--4---6-6-6---|  letting it ring sorta slide
B|--4--4---6-6-6---|
G|--4--4---6-6-6---|
D|--4--4---6-6-6---|
A|--6--6---8-8-8---|
E|--4--4---6-6-6---|


Verse:

e|--4--6--4--6--4--6--4--6------| One guitar plays this over and over
B|--4--6--4--6--4--6--4--6------|
G|--4--6--4--6--4--6--4--6------|
D|--4--6--4--6--4--6------------|
A|--6--8--6--8--6--8------------|
E|--4--6--4--6--4--6------------|

e|--4--6--4--6--4--6--4--6-----|  Other this over and over
B|--4--6--4--6--4--6--4--6-----|
G|--4--6--4--6--4--6--4--6-----|
D|--4--6--4--6--4--6--4--6-----|
A|--6--8--6--8--6--8--6--8-----|
E|--4--6--4--6--4--6--4--6-----|



Chorus: here are the chords you can work out the timing 

e|--11----11-----13--11---9--13--11-----11-----13--11---9--13--11----| X2
B|--11----11-----13--11---9--13--11-----11-----13--11---9--13--11----|
G|--11----12-----13--11--10--13--11-----12-----13--11--10--13--11----|
D|--11----13-----13--11--11--13--11-----13-----13--11--11--13--11----|
A|--13----13-----11---9--11--11--13-----13-----11---9--11--11--13----|
E|--11----11-----11---9---9--11--11-----11-----11---9---9--11--11----|
 
then end on and play a few times
		strum strum strum
e|--11----|
B|--11----|
G|--11----|
D|--11----|
A|--13----|
E|--11----|

Solo: only got the beginning 

e|--4-------6-------4--16\11-11------4-------6-------4--14\11-11------| 
B|--4-------6-------4--16\11-11------4-------6-------4--14\11-11------|
G|--4-------6-------4--16\11-11------4-------6-------4--14\11-11------|
D|--4-------6-------4--16\11-11------4-------6-------4--14\11-11------|
A|--6-------8-------6--14\9--9-------6-------8-------6--12\9--9-------|
E|--4-------6-------4----------------4-------6-------4----------------|
the rest of the solo i don't know

the other guitar plays this

e|--4--4--4--6--6--6---|  letting it ring sorta slide
B|--4--4--4--6--6--6---|
G|--4--4--4--6--6--6---|
D|--4--4--4--6--6--6---|
A|--6--6--6--8--8--8---|
E|--4--4--4--6--6--6---|


then back to Chorus: here are the chords you can work out the timing

e|--11----11-----13--11---9--13--11-----11-----13--11---9--13--11----| X2
B|--11----11-----13--11---9--13--11-----11-----13--11---9--13--11----|
G|--11----12-----13--11--10--13--11-----12-----13--11--10--13--11----|
D|--11----13-----13--11--11--13--11-----13-----13--11--11--13--11----|
A|--13----13-----11---9--11--11--13-----13-----11---9--11--11--13----|
E|--11----11-----11---9---9--11--11-----11-----11---9---9--11--11----|


then end on and play a few times
		strum strum strum
e|--11----|
B|--11----|
G|--11----|
D|--11----|
A|--13----|
E|--11----|



this bit is slightly different from the Album version, i think its better (what 
Kevin played live) with a bit of strumming in there (strum)

    (s)   (s)                              (s)
e|--11----11----13-13-13\11-11--9-11/13-13-11----| X2
B|--11----11----13-13-13\11-11--9-11/13-13-11----|
G|--11----12----13-13-13\11-11-10-11/13-13-11----|
D|--11----13----13-13-13\11-11-11-11/13-13-11----|
A|--13----13----11-11-11\9---9--9--9/11-11-13----|
E|--11----11----11-11-11\9---9--9--9/11-11-11----|


then back to Chorus: here are the chords you can work out the timing

e|--11----11-----13--11---9--13--11-----11-----13--11---9--13--11----|
B|--11----11-----13--11---9--13--11-----11-----13--11---9--13--11----|
G|--11----12-----13--11--10--13--11-----12-----13--11--10--13--11----|
D|--11----13-----13--11--11--13--11-----13-----13--11--11--13--11----|
A|--13----13-----11---9--11--11--13-----13-----11---9--11--11--13----|
E|--11----11-----11---9---9--11--11-----11-----11---9---9--11--11----|

 "Part A":

e|--4--4---6-6-6---| X 4  
B|--4--4---6-6-6---|
G|--4--4---6-6-6---|
D|--4--4---6-6-6---|
A|--6--6---8-8-8---|
E|--4--4---6-6-6---|

Call this "Part A":

e|--11--| The END
B|--11--|
G|--11--|
D|--11--|
A|--13--|
E|--11--|

************************************

| /   slide up
| \   slide down
| h   hammer-on
| p   pull-off
| ~   vibrato
| +   harmonic
| x   Mute note
| b   Bend
| pb  Pre-bend
| br  Bend release
| pbr Pre-bend release
| brb Bend release bend

************************************
Tap to rate this tab
 
# A B C D E F G H I J K L M N O P Q R S T U V W X Y Z