Song name
# A B C D E F G H I J K L M N O P Q R S T U V W X Y Z

Tame Impala - Solitude Is Bliss tab

                         Tame Impala - Solitude Is Bliss
                        from their 2010 album Innerspeaker

This is how to play Solitude Is Bliss. The strumming pattern is also included
just above the tab (D means down, U means up), which is important in getting
it to sound correct:

               Intro/main riff:
  D DU D DU D D   D   D  U    D   D  U   D  D
e---------------------------------------------|
B-7-77-7-77-7-5---10--10-10--10--12-12--12--7-|
G-7-77-7-77-7-5---10--10-10--10--12-12--12--7-|
D-7-77-7-77-7-5---10--10-10--10--12-12--12--7-|
A-5-55-5-55-5-3---8---8--8---8---10-10--10--5-|
E---------------------------------------------|

         Verse riff
e----------------------------|
B----------------------------|
G----------------------------|
D----------------------------|
A----------------------------|
E-10-10-10-10-10-12\10-10-10-|
Tap to rate this tab
 
# A B C D E F G H I J K L M N O P Q R S T U V W X Y Z