Song name
# A B C D E F G H I J K L M N O P Q R S T U V W X Y Z

Tame Impala - When The Feelings In The Core tab

-------------------------------------------------------------------------------
        	 WHEN THE FEELINGS IN THE CORE - Tame Impala
-------------------------------------------------------------------------------
Tabbed by: dis is riskee
Email:

Tuning: Standard

INTRO RIFF: (0:31)
e|-------------------------------------|
B|-------------------------------------|
G|--10-12-10-9-10-9-7-9-7-5-7-5-4-5-4--|
D|-------------------------------------|
A|-------------------------------------|
E|-------------------------------------|

VERSE CHORD PROGRESSION: (1:02)
e|----------------------|
B|----------------------|
G|---7--7--7-7--5-5-5---|
D|---7--7--7-7--5-5-5---|
A|---5--5--5-5--3-3-3---|
E|----------------------|

CHORUS CHORD PROGRESSION: (1:34)
e|-----------------|
B|--1-1----3-3-----|
G|--2-2----4-4-----|
D|--3-3----5-5-----|
A|--3-3----5-5-----|
E|-----------------|

I'm currently working on tabbing all the solos. Feedback & comments please :)
Tap to rate this tab
 
# A B C D E F G H I J K L M N O P Q R S T U V W X Y Z