Tame Impala - Why Wont You Make Up Your Mind tab

----------------------------------------------------------------------------
			     WHY WON'T YOU MAKE UP YOUR MIND? - Tame Impala
----------------------------------------------------------------------------
Tabbed by: Zooey Glass

Tuning: Standard

Intro

Guitar 1

w/ phaser and reverb

e|-5---6--------6--0---1--------1--------|
B|-5---6------6----0---1------1----------|
G|-5---7----7------0---2----2------------|
D|-7---8--8--------2---3--3--------------|
A|-7---8-----------2---3-----------------|
E|-5---6-----------0---1-----------------|

Guitar 2

w/distortion, reverb and some octave generator???
e|-------------------------------------------|
B|--------------------13/10------------------|
G|-9-10-7-10-10/14----------10-7/9-----------|
D|-------------------------------------------|
A|-------------------------------------------|
E|-------------------------------------------|


                           Am  A#
Why won't you make up your mind?
        Em   F
Give me a sign!
                           Am  A#
Why won't you make up your mind?
        Em   F
Give me a sign!

               Am  A#
Am I wasting my time?
               Em  F
Living in my head?

               Am   A#
You'll be sorry when I 
               Em  F
Make up mine instead.


Riff 2

w/lots of fuzz

e|----------------------------------------------|
B|----------------------------------------------|
G|----------------------------------------------|
D|-2-0---0-3-3/7-7---2-3-------7/5--------------|
A|-----1-------------------0-3------------------|
E|-----------------------1----------------------|

There are some bendings but I dont know how to tab them.

Tap to rate this tab
 
# A B C D E F G H I J K L M N O P Q R S T U V W X Y Z