Song name
# A B C D E F G H I J K L M N O P Q R S T U V W X Y Z

Tame Impala - Runaway Houses City Clouds tab

-----------------------------------------
		Runaway Houses City Clouds - Tame Impala
-----------------------------------------

Tabbed by: SebTM


  Intro (Tempo : 119)
  -------------------

 
        1       and     2       and     3       and     4       and
        |       |       |       |       |       |       |       |

e|----------------------------------------------------------------------|
B|----------------------------------------------------------------------|
G|--------------------------------------3-h-5---5---3-h-5---3-----------| repeat
D|------------------------------3-h-5---------------------------5-------| 1 time
A|------3-----------3---3-----------------------------------------------|
E|----------------------------------------------------------------------|



        1       and     2       and     3       and     4       and
        |       |       |       |       |       |       |       |

e|----------------------------------------------------------------------|
B|----------------------------------------------------------------------| repeat
G|--------------------------------------1-h-3---3---1-h-3---1-----------| 1 time
D|------------------------------1-h-3---------------------------3-------|
A|----------------------------------------------------------------------|
E|------4-----------4---4-----------------------------------------------|



************************************

| h   hammer-on
| p   pull-off

************************************
Tap to rate this tab
# A B C D E F G H I J K L M N O P Q R S T U V W X Y Z