Song name
# A B C D E F G H I J K L M N O P Q R S T U V W X Y Z

Tame Impala - Its Not Meant To Be Acoustic tab

Song: It's Not Meant To Be
Artist: Tame Impala
Album: Lonerism
Tabbed by L.A Rai


Standard Tuning

This tab combines the bass line and the lead for the intro. Use your thumb to play the 
bass line in the first bar in the low E string.

e|--------------------------------|--------------------------------|
B|---3-------3-------3-------3----|---5-------5-------6-------5----|
G|-------5-------5-------5-------5|-------5-------5-------5-------5|
D|--------------------------------|---5-----------------------5----|
A|--------------------------------|-------------------3------------|
E|---3---------------5-------6----|--------------------------------|

e|--------------------------------|--------------------------------|
B|---3-------3-------3-------3----|---3-------3-------3-------3----|
G|-------3-------3-------3-------3|-------3-------3-------3-------3|
D|---3-------2-------0------------|---2-------0--------------------|
A|---------------------------3----|---------------3---1-------0----|
E|--------------------------------|--------------------------------|


[Verse]
Am        D Am D  Am         D Am D
I wanted her,     I wanted her
    Am              D     Am              D
But she doesn't like  the life that I lead
Am              D    Am              D
She doesn't like the life that I lead
Am               D Am               D
Doesn't like sand  stuck on her feet
   Am            D Am          D
Or sitting around  smoking weed
Am               D      Am            D
I must seem more like a friend in need

[Pre-Chorus]
      D                         G
And I boast that it is meant to be but in all honesty


[Chorus]
F G F
G              D        C  F
I don't have a hope in hell
F               G       F G  D   C F
I'm happy just to watch her  move     And in all honesty

F G F
G              D        C  F
I don't have a hope in hell
F               G       F G  D   C F
I'm happy just to watch her  move

These patterns remain the same for the following choruses and verse followed by the 
outro which is the same as the intro.
Tap to rate this tab
# A B C D E F G H I J K L M N O P Q R S T U V W X Y Z