Song name
# A B C D E F G H I J K L M N O P Q R S T U V W X Y Z

Tame Impala - Elephant tab

TAME IMPALA
ELEPHANT
Tab by Thom Dent


Intro
E-----------------|
B-----------------|
G-7----/-10-10----|
D-7----/-10-10----|
A-5----/-8--8-----|
E-----------------|

"Well he feels..."
E-----------------|
B-----------------|
G-7----/-10-10----|
D-7----/-10-10----|
A-5----/-8--8-----|
E-----------------|

"...That you're dreaming..."
E---------|
B---------|
G----7----|
D-5--7----|
A-5--5----|
E-3-------|

"Too bad your chances are slim"
E-------------------------------------------|
B-------------------------------------------|
G-----------------------10--10-/--7---------|
D-7--8--7--6--7--6--5---10--10-/--7---------|
A-7--8--7--6--7--6--5---8---8--/--5---------|
E-5--6--5--4--5--4--3-----------------------|

"And it's not like..."
E-----------------|
B-----------------|
G-7----/-10-10----|
D-7----/-10-10----|
A-5----/-8--8-----|
E-----------------|

"...Be something deep..."
E---------|
B---------|
G----7----|
D-5--7----|
A-5--5----|
E-3-------|

"He's not too easily scared"
E-------------------------------------------|
B-------------------------------------------|
G-----------------------10--10-/--7---------|
D-7--8--7--6--7--6--5---10--10-/--7---------|
A-7--8--7--6--7--6--5---8---8--/--5---------|
E-5--6--5--4--5--4--3-----------------------|

"He's got friends..."
E-----------------|
B-----------------|
G-7----/-10-10----|
D-7----/-10-10----|
A-5----/-8--8-----|
E-----------------|

"...There he is now..."
E---------|
B---------|
G----7----|
D-5--7----|
A-5--5----|
E-3-------|

E-----------------------------------------------------------|
B-----------------------------------------------------------|
G-----------------------------8---7-------------------------|
D-----------------------------8---7-------------------------|
A-3---2---1---0---------------6---5-------------------------|
E-----------------3---1---0---------------------------------|

SOLO 1

E-----------------------------------------------------|
B-----------------------------------------------------|
G------7-9--------7-9---10------7-10--------7-10---12-|
D-9-10-------9-10----------9-10--------9-10-----------|
A-----------------------------------------------------|
E-----------------------------------------------------|

E---------------------------------------------------------------------------|
B---------------------------------------------------------------------------|
G---------------------------------------------------------------------------|
D-10-9---------10-9--------------------10-12-10-----------------------------|
A------10-12--------10-12---10-12-13------------13---7---8---10-----------0-|
E-----------------------------------------------------------------0---1-3---|

E------------------------------------------------------------------|
B------------------------------------------------------------------|
G-10-9---------10-9---------------9--------7-10--------7-10---12/14|
D------10-12--------10-12---10-12-----9-10--------9-10-------------|
A------------------------------------------------------------------|
E------------------------------------------------------------------|

E-----------------------------------------------------------|
B-----------------------------------------------------------|
G-----------------------------8---7-------------------------|
D-----------------------------8---7-------------------------|
A-3---2---1---0---------------6---5-------------------------|
E-----------------3---1---0---------------------------------|

E------------------------------------------------------------------------|
B------------------------------------------------------------------------|
G------12----------12--------------------12-----------12------------10---|
D-9-10----9---9-10----9---9-10-12---9-10----10---9-10----10---10-12------|
A------------------------------------------------------------------------|
E------------------------------------------------------------------------|

E---------------------------------------------------------------------------|
B---------------------------------------------------------------------------|
G---------------------------------------------------------------------------|
D-10-9---------10-9--------------------10-12-10-----------------------------|
A------10-12--------10-12---10-12-13------------13---7---8---10-----------0-|
E-----------------------------------------------------------------0---1-3---|

E------------------------------------------------------|
B------------------------------------------------------|
G-10-9---------10-9---------------12---10-9------------|
D------10-12--------10-12---9-10------------10-12---12-|
A------------------------------------------------------|
E------------------------------------------------------|

E-----------------------------------------------------------|
B-----------------------------------------------------------|
G-----------------------------8---7-------------------------|
D-----------------------------8---7-------------------------|
A-3---2---1---0---------------6---5-------------------------|
E-----------------3---1---0---------------------------------|

SOLO 2

E-------8-------8-------8-------8----|
B----10------10------10------10------|
G-12------12------12------12------12-|
D------------------------------------|
A------------------------------------|
E------------------------------------|

E----10----10----10----10h12-10------10h12-10-------------8-|
B-10----13----13----13----------10------------13------10----|
G--------------------------------------------------12-------|
D-----------------------------------------------------------|
A-----------------------------------------------------------|
E-----------------------------------------------------------|

E------8-------8-------8----8-10-8----|
B---10------10------10---10--------10-|
G12------12------12-------------------|
D-------------------------------------|
A-------------------------------------|
E-------------------------------------|

E---------------------------------|
B---------------------------------|
G-----------------------------8---|
D-----------------------------8---|
A-3---2---1---0---------------6---|
E-----------------3---1---0-------|

E-----------------|
B-----------------|
G-7----/-10-10----|
D-7----/-10-10----|
A-5----/-8--8-----|
E-----------------|

"He pulled the mirrors..."
E-----------------|
B-----------------|
G-7----/-10-10----|
D-7----/-10-10----|
A-5----/-8--8-----|
E-----------------|

"He talks..."
E---------|
B---------|
G----7----|
D-5--7----|
A-5--5----|
E-3-------|

"Somebody grabbed his collar..."
E---------------------|
B---------------------|
G-10--7----/-10-10----|
D-10--7----/-10-10----|
A-8---5----/-8--8-----|
E---------------------|

"...Remember a thing..."
E---------|
B---------|
G----7----|
D-5--7----|
A-5--5----|
E-3-------|

"That's how it is till the end"
E----------------------|
B----------------------|
G----------------------|
D-7--8--7--6--7--6--5--|
A-7--8--7--6--7--6--5--|
E-5--6--5--4--5--4--3--|

"YEAH."
E---------------------|
B---------------------|
G-10--10-/--7---------|
D-10--10-/--7---------|
A-8---8--/--5---------|
E---------------------|

Tap to rate this tab
# A B C D E F G H I J K L M N O P Q R S T U V W X Y Z