Song name
# A B C D E F G H I J K L M N O P Q R S T U V W X Y Z

Tame Impala - She Just Wont Believe Me tab

                   Tame Impala - She Just Won't Believe Me
                       from their 2012 album Lonerism

Intro:
Synth - the synth just sustains the chords for
a long time, so add your own strumming in:
e|-3--------1--------------3----------------|
B|-5--------1--------------5----------------|
G|-5--------2--------------3----------------|
D|-5--------3--------------5----------------|
A|-3--------3--------------3----------------|
E|----------1-------------------------------|


Verse:
"But she just won't believe me, she just won't believe me,
I never appear deceiving, but she just won't believe me"
Synth:
e|-5--------3--------5--------3--------|
B|-6--------5--------6--------5--------|
G|-7--------5--------7--------5--------| x2
D|-7--------5--------7--------5--------|
A|-5--------3--------5--------3--------|
E|-------------------------------------|

This guitar comes in on the word "deceiving" and strums the chords:
e|-3-3-3-3-3-3-3-3-5-5-5-5-5-5-5-5-3-3-3-3-3-3-3-3-|
B|-5-5-5-5-5-5-5-5-6-6-6-6-6-6-6-6-5-5-5-5-5-5-5-5-|
G|-5-5-5-5-5-5-5-5-7-7-7-7-7-7-7-7-5-5-5-5-5-5-5-5-|
D|-5-5-5-5-5-5-5-5-7-7-7-7-7-7-7-7-5-5-5-5-5-5-5-5-|
A|-3-3-3-3-3-3-3-3-5-5-5-5-5-5-5-5-3-3-3-3-3-3-3-3-|
E|-------------------------------------------------|

And then this guitar comes in on the word "she" after the other guitar
starts strumming the chords, and solos until the song abruptly ends:
e|-------------------------------------------------------------------|
B|-------------------------------------------------------------------|
G|--------------------10-12-12b14r12p10----10-12-12b14r12p10----10---|
D|-------10-12--10h12-------------------12-------------------12------|
A|-10h12-------------------------------------------------------------|
E|-------------------------------------------------------------------|

e|-13b15--13-10-------------------------------------------------------|
B|--------------13-10-13b15-r13-10----10------------------------------|
G|---------------------------------12------12-10----------------------|
D|-----------------------------------------------12-12----------------|
A|------------------------------------------------------12-12---------|
E|-------------------------------------------------------------10-10--|



************************************

| /   slide up
| \   slide down
| h   hammer-on
| p   pull-off
| ~   vibrato
| +   harmonic
| x   Mute note
| .   staccato
| b   Bend
| pb  Pre-bend
| br  Bend release
| pbr Pre-bend release
| brb Bend release bend

************************************
Tap to rate this tab
# A B C D E F G H I J K L M N O P Q R S T U V W X Y Z