Song name
# A B C D E F G H I J K L M N O P Q R S T U V W X Y Z

Tame Impala - Prototype tab

Intro:

Kevin's Guitar:
Dmaj7  Amaj7, Dm7  Am7

Dom's Guitar (Intro)

E|---------------------7/8-7/|
B|---------------8-10-8------|
G|--7-9-7-9/4----------------|
D|---------------------------|
A|---------------------------|
E|---------------------------|


Here's the little riff Dom plays throughout
the whole song. Listen for when he plays it.

E|--------7/8-7-|
B|--8-10-8------|
G|--------------|
D|--------------|
A|--------------|
E|--------------|

Verse 1:

Dmaj7                   Amaj7   Dm7              Am7
 I hope that you're the one; if not, you are the prototype.
Dmaj7                Amaj7    Dm7         Am7
 We'll tiptoe to the sun, and do things I know you like.

Chorus 1:

(Am7)           Dmaj7   Amaj7                Dmaj7   Amaj7
 I think I'm in love, a-gain, I think I'm in love, a-gain.

Verse 2:

Dmaj7             Amaj7      Dm7               Am7
 Today must be my lucky day, baby, you are the prototype.
Dmaj7                    Amaj7 Dm7          Am7
 Do sumn' outta the ordi-nary, like catch a manatee.
Dmaj7              Amaj7     Dm7  Am7
 Baby, you are the prototype.      I think I'm...

Chorus 2:

(Am7)           Dmaj7   Amaj7                Dmaj7   Amaj7
 I think I'm in love, a-gain, I think I'm in love, a-gain.

Verse 3:

Dmaj7            Amaj7 Dm7          Am7
 If we happen to part, Lord knows I don't want that.
Dmaj7                        Amaj7   Dm7             Am7
 But hey, we can't be mad at God; we met today for a reason.
(I think I'm on the right track now).

Chorus 3:

(Am7)           Dmaj7   Amaj7       Dmaj7   Amaj7
I'm in love, a-gain, I think I'm in love, a-gain.

Let's go, let's go to the movies yea

Dom's Solo:

E|--------------------------------------------------------------------------------------------------|
B|--------------------------------------------------------10-13-15-13-10-13-          ---15b-13-10--|
G|--14----14-12-10----------------------------------------------------------------------------------|
D|----------------14-12---7-9p10--7-9-12--13--7-10-12-10-7------------------------------------------|
A|--------------------------------------------------------------------------------------------------|
E|--------------------------------------------------------------------------------------------------|

Chorus 4:

(Am7)           Dmaj7   Amaj7                Dmaj7   Amaj7
 I think I'm in love, a-gain, I think I'm in love, a-gain.

Outro:

(Vocal Ad-libs)





************************************

| /   slide up
| \   slide down
| h   hammer-on
| p   pull-off
| ~   vibrato
| +   harmonic
| x   Mute note
| .   staccato
| b   Bend
| pb  Pre-bend
| br  Bend release
| pbr Pre-bend release
| brb Bend release bend

************************************
Tap to rate this tab
# A B C D E F G H I J K L M N O P Q R S T U V W X Y Z