Song name
# A B C D E F G H I J K L M N O P Q R S T U V W X Y Z

Tammany Hall Nyc - Cindy tab

-------------------------------------------------------------------------------
		          Tammany Hall NYC - Cindy
-------------------------------------------------------------------------------
Tabbed by: Sean Hummer
Email: allstar21369@hotmail.com

I noticed this on the Scrubs episode "My Lucky Night." Great song.

Tuning: Standard

To get the strumming 100% correct listen to the song. The drums hit the bass
at the same times you include the low E in your strumming.


Intro/Verse- "You can't keep me from talking..."
e|-----0--0-0-0-----0--0-0-0-------------------------------------------------|
B|-----0--0-0-0-----0--0-0-0-------------------------------------------------|
G|-----9--9-9-9-----9--9-9-9-------------------------------------------------|
D|9-9--9--9-9-9--9--9--9-9-9-------------------------------------------------|
A|7-7--7--7-7-7--7--7--7-7-7-------------------------------------------------|
E|0-0------------0-----------------------------------------------------------|




Chorus- "And you, you loved me with your eyes, Cindy..."
e|-----0--0-0-0--0-0-------------0--0-0-0--0-0-------------------------------|
B|-----0--0-0-0--0-0-------------0--0-0-0--0-0-------------------------------|
G|-----9--9-9-8--8-8h9-----------9--9-9-8--8-8h9-----------------------------|
D|9-9--9--9-9-9--9-9--------9-9--9--9-9-9--9-9-------------------------------|
A|7-7--7--7-7-7--7-7--------7-7--7--7-7-7--7-7-------------------------------|
E|0-0-----------------------0-0----------------------------------------------|

e|0-0--0--0-0-0--0-0-0-0------0-0--0--0-0-0--0-0-0-0-------------------------|
B|4-4--4--4-4-4--4-4-4-4------2-2--2--2-2-2--2-2-2-2-------------------------|
G|4-4--4--4-4-4--4-4-4-4------2-2--2--2-2-2--2-2-2-2-------------------------|
D|4-4--4--4-4-4--4-4-4-4------2-2--2--2-2-2--2-2-2-2---------x4--------------|
A|2-2--2--2-2-2--2-2-2-2------0-0--0--0-0-0--0-0-0-0-------------------------|
E|---------------------------------------------------------------------------|




Bridge- "'Cause you, you just turned and stared at me..."
e|0-0--0--0-0-0--0-0------0-0--0--0-0-0--0-0---------------------------------|
B|0-0--0--0-0-0--0-0------0-0--0--0-0-0--0-0---------------------------------|
G|6-6--6--6-6-6--6-6------6-6--6--6-6-6--6-6---------------------------------|
D|4-4--4--4-4-4--4-4------4-4--4--4-4-4--4-4---------------------------------|
A|4-4--4--4-4-4--4-4------4-4--4--4-4-4--4-4---------------------------------|
E|2-2--2--2-2-2--2-2------2-2--2--2-2-2--2-2---------------------------------|

e|0-0--0--0-0-0--0-0------0-0--0--0-0-0--0-0---------------------------------|
B|2-2--2--2-2-2--2-2------4-4--4--4-4-4--4-4---------------------------------|
G|2-2--2--2-2-2--2-2------4-4--4--4-4-4--4-4---------------------------------|
D|2-2--2--2-2-2--2-2------4-4--4--4-4-4--4-4--------------x2-----------------|
A|0-0--0--0-0-0--0-0------2-2--2--2-2-2--2-2---------------------------------|
E|---------------------------------------------------------------------------|

e|0-0--0--0-0-0--0-0------0-0--0--0-0-0--0-0------0x-------------------------|
B|0-0--0--0-0-0--0-0------0-0--0--0-0-0--0-0------2x-------------------------|
G|6-6--6--6-6-6--6-6------6-6--6--6-6-6--6-6------2x-------------------------|
D|4-4--4--4-4-4--4-4------4-4--4--4-4-4--4-4------2x-------------------------|
A|4-4--4--4-4-4--4-4------4-4--4--4-4-4--4-4------0x-------------------------|
E|2-2--2--2-2-2--2-2------2-2--2--2-2-2--2-2---------------------------------|


| /  slide up
| \  slide down
| h  hammer-on
| p  pull-off
| ~  vibrato
| +  harmonic
| x  Mute note
===============================================================================
Tap to rate this tab
# A B C D E F G H I J K L M N O P Q R S T U V W X Y Z