Song name
# A B C D E F G H I J K L M N O P Q R S T U V W X Y Z

Tampa Red - It Hurts Me Too tab

YouTube links: http://www.youtube.com/watch?v=AMBiAExqJTs,  
http://www.youtube.com/watch?v=uPxtC_JIR08

Heres a simple version but it works! Lots of room for your voice.
Clapton, Elmore James, Keb Mo and John Hammond have versions of this
song. Put some vibrato on the last note of each measure.

    1                         2
D |----------12-------------|---------------------------|
A |-------------------------|-----/7--------------------|
F#|-----/12-----------------|---------7-----------------|
D |-------------------------|------------7--------------|
A |-------------------------|---------------3/--7-------|
D |-------------------------|---------------------------|


3                         4        
------------------------|--------------------------|
------------5-----------|-----/8-------------------|
---------5--------------|---------8----------------|
-----/5-----------------|------------8-------------|
------------------------|---------------/8---------|
------------------------|--------------------------|

5                               6      
------------------/12---------|---------------------------|
----------12------------------|-----/7--------------------|
--------------12--------------|---------7-----------------|
-----/12----------------------|------------7--------------|
------------------------------|---------------3/--7-------|
------------------------------|---------------------------|
    7
----------------------------|
----------------------------|
----------------------------|
------------0--/3--0-----0--|
-----0--/3------------------|
----------------------0-----|

You said you was(1) hurting, almost lost your (2)mind, 
And the man you (3)love, he hurts you all the (4)time.
When things go (5)wrong, so (6)wrong with you, it hurts me, (7)too.

You love him 1 more when you should love him 2 less. 
You pick up be(3)hind him and take his (4)mess. 
When things go (5)wrong, so (6)wrong with you, it hurts me, (7)too.

He love another (1)woman and I love (2)you, 
But you love (3)him and stick to him like (4)glue.(What can I do?) 
When things go (5)wrong, so (6)wrong with you, it hurts me, (7)too.

Your man dont love (1)you He told me (2)so 
while you love (3)him Hes off lovin Miss (4)So n So
When things go (5)wrong, so (6)wrong with you, it hurts me, (7)too.

Hes gonna keep (1)doggin you Its gonna make me (2)mad
Im gonna take somthing (3)from him he didnt know he (4)had
When things go (5)wrong, so (6)wrong with you, it hurts me, (7)too.
Tap to rate this tab
 
# A B C D E F G H I J K L M N O P Q R S T U V W X Y Z