Song name
# A B C D E F G H I J K L M N O P Q R S T U V W X Y Z

Tane Tomoko - Broken Wings tab

TRINITY BLOOD - BROKEN WINGS

This is a version I wrote by ear myself 3 years ago... Hope you enjoy!

Key:
v- Vibrato
~ means to let ring out, or to hold until next note
/  a slide from one note to another
1h3 would mean, hammer on from 1 to 3
6p5  pull off from 6 to 5

Piano intro: First part plays more than once, then end on the second part.

e )---------------------------------------------------------- - I---------------------|
b )--------------------------------------------------------- -- I---------------------|
g )-----------------------------------------------------------  I---------------------|
D) ----------12~ -----------12~ -----------12~---------12~ ---  I-----------------12--|
A)---9h10-----------9h10------------9h10-------9~ ----------- I-------9--10-----------|
E) -----------------------------------------------------------  I--0------------------|

Then lead voice comes in...

e)------------------------------------------------------------------------------------|
b)------------------------------------------------------------------------------------|
g)------------------------------------------------------------------------------------|
D) ----------------------9---------12--12-------------------------10--9---------------|
A)--10---12v---10h12-------10--------------12v----12--10--12-------------12/14v-------|
E) -----------------------------------------------------------------------------------|

e)--------------------------------------------------------------------------------|
b)--------------------------------------------------------------------------------|
g)------------------------------------------------------------12---11-------------|
D) ---------------------9--------------14--12----------------------------12/14v~ -|
A)--12--12---10h12---------10v----10------------12v-----12------------------------|
E) -------------------------------------------------------------------------------|

e)----------------------------------------------------------------------8---7--------|
b)-----------------------------------10---7--------------7--8---10-------------10v~ -|
g)-------------------9--7------9--9----------7-----7h9-------------------------------|
D) ----------10--10--------9---------------------------------------------------------|
A)---10h12---------------------------------------------------------------------------|
E) ----------------------------------------------------------------------------------|

CHORUS
e)-------------------------------------------------------------------------------------------|
b)------------------8--8--7---------7------7/8--8v-------------------------------------------|
g)---------7---9-------------7----------9----------------------------------------------------|
D)--9--9-------------------------9-----------------------------------------------------------|
A)-------------------------------------------------------------------------------------------|
E)-------------------------------------------------------------------------------------------|

e)---------------------------------------------------------------------------------------------|
b)-------------------10--10--8--7--------10---8---10--10/12---8~ ----------7--8--7--8/10--10v--|
g)----------7---9-------------------7--------------------------------7--9----------------------|
D)--9--9---------------------------------------------------------------------------------------|
A)---------------------------------------------------------------------------------------------|
E)---------------------------------------------------------------------------------------------|

e)-------------------------------------------------------------------------------------------------|
b)----8--8--7----------7-------7/8---8------------------10--10--8--7--------10--8--10---10/12---8--|
g)---------------7---------9---------------------7--9------------------7---------------------------|
D)------------------9----------------------9--9----------------------------------------------------|
A)-------------------------------------------------------------------------------------------------|
E)-------------------------------------------------------------------------------------------------|

e)-----------------------------------------|
b)----------------7--8--7--8---10--10v~~~--|
g)------- 7--9-----------------------------|
D)-- --------------------------------------|
A)-----------------------------------------|
E)-----------------------------------------|

Goes into the bridge from here and then repeats! I added  fillers in the video that you 
can probably figure out on your own, or come up with your own, just stick to the same 
key and you’ll be fine.
Tap to rate this tab
# A B C D E F G H I J K L M N O P Q R S T U V W X Y Z