Guitaretab - guitar tabs
Song name
# A B C D E F G H I J K L M N O P Q R S T U V W X Y Z

Tanel Padar And The Sun - Tudrukune tab

pm=palm mute
b=bend
d=downstroke
u=upstroke

Verse:

e----------------------------------------------------|
B----------------------------------------------------|
G----------------------------------------------------|
D----12---12---12---12-----12---12--12---------------|
A----12---12---12---12-----12---12--12---------------|
D----12---12---12---12-----12---12--12---------------|
pm ...................................

e-------------------------------|
B-------------------------------|
G-------------------------------|
D-------4--5b--4----------------|
A----5-------------5------------|
D-------------------------------|

Play it 4 times.

End of Verse
e----------------------------------------|
B----------------------------------------|
G----------------------------------------|
D---0----3---5---3---0-------------------|
A---0----3---5---3---0-------------------|
D---0----3---5---3---0-------------------|

Chorus

D5        A5         C5       G5
Ma hulgun särgiväel, mul pole külm
D5      A5           C5     G5
Naerdes jooksen taas hommikusse
D5     A5       C5       G5
Armund narri ei morjenda ilm.
B5     C5
Oo, mu tüdruk

Note: Palm mute the power chords, but let last two chords ring.
[ Tab from: http://www.guitaretab.com/t/tanel-padar-and-the-sun/80295.html ]
Verse 2x
End of verse
Chorus
                                        d    u     d
e------------------------------------------------------------------|
B------------------------------------------------------------------|
G---------------------------------------15---15---15---------------|
D---0----3---5---3---0---0----3---5-----15---15---15---------------|
A---0----3---5---3---0---0----3---5--------------------------------|
D---0----3---5---3---0---0----3---5--------------------------------|

e------------------------------------------------------------------|
B------------------------------------------------------------------|
G------------------------------------------------------------------|
D---0----3---5---3---0---0----3---5--------------------------------|
A---0----3---5---3---0---0----3---5-----3-4-5----------------------|
D---0----3---5---3---0---0----3---5--------------------------------|

Play two times.

Now comes the solo.I couldn't figure it out but there is played something with the "End 
verse" riff.

Verse(without verse riff)
Chorus 4 times

Ending

e------------------------------------------|
B------------------------------------------|
G------------------------------------------|
D---0----3---5---3---0---------------------|
A---0----3---5---3---0---------------------|
D---0----3---5---3---0---------------------|

Enjoy!:)
Related for Tudrukune tab
×
Tudrukune