Song name
# A B C D E F G H I J K L M N O P Q R S T U V W X Y Z

Tanel Padar And The Sun - Kuu On Paike tab

Help us improve GuitareTab! Take a short survey!
Highlighted       Show chord diagrams
Intro

e----------------------------|
B----------------------------|
G----------------------------|
D-9-9--------7b-----7b---7-9-|
A-9-9--7-7-9----7-9---9------|
E-7-7------------------------|

Verse

E5                  C#5
Tunduda vib veider, seisev kella seier
A5          C5
Sina ttab, tema td ei tee
E5              C#5
Aga kogu kaader, hingest lahti saades
A5             C#5            E5
Tiksuma edasi leb, ei kustu veel


Chorus:

B5               Bb5
Alati ikka peale td,
                    G5
koju ei le, ei risti ette l
E5       A5
Aeg alles algab ju
B5                Bb5
Elada vaid, et kia tl
                         G5
Ttada vi et lahti saab lasta tlt
E5       A5         E5
Valgusest valge kuu

Verse(same chords)

Vahel mulle nikse
Kuu on ige Pike
Peval tsta silmi tlt ei saa
Isegi vib vita
Alles sel kima
lhen ja koidikuni uinun ma

Chorus

Bridge

C#5    A5
Mida sa peval ned,
E5
unengu on t su kes
C#5    A5
Hmaras rokib Sul juus,
G#5    F#5
peas on suu


Chorus 4 times

Outro

e------------------------------|
B------------------------------|
G------------------------------|
D-9-9--------7b-----7b---7-9---|  4x
A-9-9--7-7-9----7-9---9--------|
E-7-7--------------------------|

e--------|
B--------|
G--------|
D-9-9----|
A-9-9----|
E-7-7----|

www.thesun.ee
Related for Kuu On Paike tab