Song name
# A B C D E F G H I J K L M N O P Q R S T U V W X Y Z

Tangerine Dream - Le Parc L A - Streethawk tab

LE PARC (L.A. - STREETHAWK) - Tangerine Dream (1985)

Official web site of band: http://www.tangerinedream-music.com/

Tab by Darryl Sloan (darrylsloan@gmail.com)

The original track is purely keyboards, but sounds great when played on lead
guitar. Best known as the theme from the 1980s TV series "Street Hawk."


E -|--------------------------------|--------------------------------|-
B -|-----------------11------8------|-------------8------------------|-
G -|-8-------10---------------------|-8-------10----8----------------|-
D -|--------------------------------|--------------------------------|-
A -|--------------------------------|--------------------------------|-
E -|--------------------------------|--------------------------------|-
   | ^   ^   ^   ^   ^   ^   ^   ^  | ^   ^   ^   ^   ^   ^   ^   ^  | 


E -|--------------------------------|---------6---8------------------|-
B -|-----------------11------8------|-8---8---------8----------------|-
G -|-8-------10---------------------|--------------------------------|-
D -|--------------------------------|--------------------------------|-
A -|--------------------------------|--------------------------------|-
E -|--------------------------------|--------------------------------|-
   | ^   ^   ^   ^   ^   ^   ^   ^  | ^   ^   ^   ^   ^   ^   ^   ^  | 


(Repeat above 2 bars)


E -|--------------------------------|--------------------------------|-
B -|-10------------------8----------|-10-----------------------------|-
G -|---------10---------------------|---------10------9----10-12-----|-
D -|-------------10--8--------------|--------------------------------|-
A -|--------------------------------|--------------------------------|-
E -|--------------------------------|--------------------------------|-
   | ^   ^   ^   ^   ^   ^   ^   ^  | ^   ^   ^   ^   ^   ^   ^   ^  | 


E -|--------------------------------|-----------------8--------------|-
B -|-10------------------8----------|-10-----------------------------|-
G -|---------10---------------------|-------------10-----------------|-
D -|-------------10--8--------------|--------------------------------|-
A -|--------------------------------|--------------------------------|-
E -|--------------------------------|--------------------------------|-
   | ^   ^   ^   ^   ^   ^   ^   ^  | ^   ^   ^   ^   ^   ^   ^   ^  | 


(Break)


E -|-------------4-------3----------|-------------4---6-----4-3------|-
B -|-6-----------------------6---4--|-6---------------------------6-4|-
G -|---------6----------------------|---------6----------------------|-
D -|--------------------------------|--------------------------------|-
A -|--------------------------------|--------------------------------|-
E -|--------------------------------|--------------------------------|-
   | ^   ^   ^   ^   ^   ^   ^   ^  | ^   ^   ^   ^   ^   ^   ^   ^  | 


E -|-------------4-------3----------|--------------------------------|-
B -|-6-----------------------6---4--|-6---------------8--------------|-
G -|---------6----------------------|--------------------------------|-
D -|--------------------------------|--------------------------------|-
A -|--------------------------------|--------------------------------|-
E -|--------------------------------|--------------------------------|-
   | ^   ^   ^   ^   ^   ^   ^   ^  | ^   ^   ^   ^   ^   ^   ^   ^  |


E -|--------------------------------|--------------------------------|-
B -|-----------------6--------------|--------------------------------|-
G -|--------------------------------|--------------------------------|-
D -|--------------------------------|--------------------------------|-
A -|--------------------------------|--------------------------------|-
E -|--------------------------------|--------------------------------|-
   | ^   ^   ^   ^   ^   ^   ^   ^  | ^   ^   ^   ^   ^   ^   ^   ^  |


(Repeat all)
Tap to rate this tab
 
# A B C D E F G H I J K L M N O P Q R S T U V W X Y Z