Song name
# A B C D E F G H I J K L M N O P Q R S T U V W X Y Z

Tanish - Jaanam Dekh Lo tab

E|----0-2-2-3---2-0-2--0-----2-------------|
B|-0-------------------------3-------------|
G|-----------------------------------------|
D|-----------------------------------------|
A|-----------------------------------------|
E|-----------------------------------------|

Janam dekhlo   Mit gaye dooriyan

E|-----------------------------------------------|
B|-0-0-5---3-2-3------1-0-1------5---------------|
G|---------------------------------------2--4----|
D|-----------------------------------------------|
A|-----------------------------------------------|
E|-----------------------------------------------|

Me yaha Hoon yahan Hoon yahaaa Hoon yahaaaaaaan

E|----0-2-2-3----2-0-2--0-----2------------|
B|-0--------------------------3------------|
G|-----------------------------------------|
D|-----------------------------------------|
A|-----------------------------------------|
E|-----------------------------------------|

Kasi sharhadyea  kasi Majbooriyan

E|------------------------------------------------|
B|-0-0-5---3-2-3------1-0-1-------5---------------|
G|----------------------------------------2--4----|
D|------------------------------------------------|
A|------------------------------------------------|
E|------------------------------------------------|

Mea yaha   Hoon yaha  Hoon yahaaa Hoon yahaaaaaaan
Tap to rate this tab
# A B C D E F G H I J K L M N O P Q R S T U V W X Y Z