Tank 86 - Big Ass Beetle tab

big ass beetle


tank86


TRANSCRIBED BY RUDY GUZMAN


guzman_84@hotmail.com


                                               
e:-------------------------------------------------------|
B:-------------------------------------------------------|
G:-------------------------------------------------------|
D:-------------------------------------------------------|
A:-5-7-7-5-7-7-5-7-7-5-7-7-5--5-7-7-5-7-7-5-7-7-5-7-7--7-|
E:-----------------------5-3---------------------------5-|

e:-------------------------------------------------------|
B:-------------------------------------------------------|
G:-------------------------------------------------------|
D:-------------------------------------------------------|
A:-5-7-7-5-7-7-5-7-7-5-7-7-5--5-7-7-5-7-7-5-7------------|
E:-----------------------5-3-----------------------------|

e:-------------------------------------------------------|
B:-------------------------------------------------------|
G:-------------------------------------------------------|
D:-------------------------------------------------------|
A:-5-7-7-5-7-7-5-7-7-5-7-7-5--5-7-7-5-7-7-5-7-7-5-7-7--7-|
E:-----------------------5-3---------------------------5-|

e:------------------------------------------------------------|
B:------------------------------------------------------------|
G:------------------------------------------------------------|
D:----------------------------------------------------7-5-----|
A:-5-7-7-5-7-7-5-7-7-5-7-7-5--5-7-7-5-7-7-5-7-7-5-7-5-----7-5-|
E:-----------------------5-3----------------------------------|

e:-------------------------------------------------------|
B:-------------------------------------------------------|
G:-------------------------------------------------------|
D:-------------------------------------------------------|
A:-5-7-7-5-7-7-5-7-7-5-7-7-5--5-7-7-5-7-7-5-7-7-5-7-7--7-|
E:-----------------------5-3---------------------------5-|

e:----------------------------------------------------------|
B:----------------------------------------------------------|
G:----------------------------------------------------------|
D:----------------------------------------------------7~-5~-|
A:-5-7-7-5-7-7-5-7-7-5-7-7-5--5-7-7-5-7-7-5-7-7-5-7-5-------|
E:-----------------------5-3--------------------------------|

e:-------------------------------------------------------|
B:-------------------------------------------------------|
G:-------------------------------------------------------|
D:-------------------------------------------------------|
A:-5-7-7-5-7-7-5-7-7-5-7-7-5--5-7-7-5-7-7-5-7-7-5-7-7--7-|
E:-----------------------5-3---------------------------5-|

e:---------------------------------------------------------|
B:---------------------------------------------------------|
G:---------------------------------------------------------|
D:---------------------------------------------------------|
A:-5-7-7-5-7-7-5-7-7-5-7-7-5--5-7-7-5-7-7-5-7-7-5-7-7--7-5-|
E:-----------------------5-3---------------------------5-3-|

                                 
     pm.......................... x3
e:--------------------------------|
B:--------------------------------|
G:--------------------------------|
D:--------------------------------|
A:-2--2-2-2-2-2-2-2-2-2-2-2-2-2-2-|
E:-0--0-0-0-0-0-0-0-0-0-0-0-0-0-0-|

    pm..........
e:-----------------------------------------|
B:-----------------------------------------|
G:-----------------------------------------|
D:----------------12-12-12-12--11-11-11-11-|
A:-2-2-2-2-2-2-2--10-10-10-10--9--9--9--9--|
E:-0-0-0-0-0-0-0---------------------------|


e:--------------------------------|
B:--------------------------------|
G:--------------------------------|
D:--------------------------------|
A:-2--2-2-2-2-2-2-2-2-2-2-2-2-2-2-|
E:-0--0-0-0-0-0-0-0-0-0-0-0-0-0-0-|

    pm..........
e:-----------------------------------------|
B:-----------------------------------------|
G:-----------------------------------------|
D:----------------12-12-12-12--11-11-11-11-|
A:-2-2-2-2-2-2-2--10-10-10-10--9--9--9--9--|
E:-0-0-0-0-0-0-0---------------------------|

e:--------------------------------|
B:--------------------------------|
G:--------------------------------|
D:--------------------------------|
A:-2--2-2-2-2-2-2-2-2-2-2-2-2-2-2-|
E:-0--0-0-0-0-0-0-0-0-0-0-0-0-0-0-|

    pm..........
e:-----------------------------------------|
B:-----------------------------------------|
G:-----------------------------------------|
D:----------------12-12-12-12--11-11-11-11-|
A:-2-2-2-2-2-2-2--10-10-10-10--9--9--9--9--|
E:-0-0-0-0-0-0-0---------------------------|


    pm..........
e:-----------------------|
B:-----------------------|
G:-----------------------|
D:----------------6-9-12-|
A:-2-2-2-2-2-2-2--4-7-10-|
E:-0-0-0-0-0-0-0---------|

    pm..........
e:--------------------------|
B:--------------------------|
G:--------------------------|
D:----------------6-9-12-11-|
A:-2-2-2-2-2-2-2--4-7-10-9--|
E:-0-0-0-0-0-0-0------------|

    pm..........
e:-----------------------|
B:-----------------------|
G:-----------------------|
D:----------------6-9-12-|
A:-2-2-2-2-2-2-2--4-7-10-|
E:-0-0-0-0-0-0-0---------|

    pm..........
e:-----------------------------------------|
B:-----------------------------------------|
G:-----------------------------------------|
D:----------------12-12-12-12--11-11-11-11-|
A:-2-2-2-2-2-2-2--10-10-10-10--9--9--9--9--|
E:-0-0-0-0-0-0-0---------------------------|

    pm..........
e:-----------------------|
B:-----------------------|
G:-----------------------|
D:----------------6-9-12-|
A:-2-2-2-2-2-2-2--4-7-10-|
E:-0-0-0-0-0-0-0---------|

    pm..........
e:--------------------------|
B:--------------------------|
G:--------------------------|
D:----------------6-9-12-11-|
A:-2-2-2-2-2-2-2--4-7-10-9--|
E:-0-0-0-0-0-0-0------------|

    pm..........
e:-----------------------|
B:-----------------------|
G:-----------------------|
D:----------------6-9-12-|
A:-2-2-2-2-2-2-2--4-7-10-|
E:-0-0-0-0-0-0-0---------|

    pm..........
e:-----------------------------------------|
B:-----------------------------------------|
G:-----------------------------------------|
D:----------------12-12-12-12--11-11-11-11-|
A:-2-2-2-2-2-2-2--10-10-10-10--9--9--9--9--|
E:-0-0-0-0-0-0-0---------------------------|

                            x5     
e:---------------------------|
B:---------------------------|
G:---------------------------|
D:-9------------(9)----------|
A:-7------------(7)----------|
E:---------------------------|

e:------------------------------------------------------------|
B:------------------------------------------------------------|
G:--------------------9-9-9-9-9-9-9-9-9--7-7-7-7-7-7----------|
D:-7-------------9----7-7-7-7-7-7-7-7-7--5-5-5-5-5-5--7-7/9---|
A:-5-------------7------------------------------------5-5/7---|
E:------------------------------------------------------------|

e:----------------------------------------------------------|
B:----------------------------------------------------------|
G:--------------------9-9-9-9-9-9-9-9-9--7-7-7-7-7-7--------|
D:-7-------------9----7-7-7-7-7-7-7-7-7--5-5-5-5-5-5--7/9---|
A:-5-------------7------------------------------------5/7---|
E:----------------------------------------------------------|

e:-------------------------------------------------|
B:-------------------------------------------------|
G:-------------------------------------------------|
D:-9--9-9-9----9--9-9----------7-7-7-7-7-7-7-7-7-7-|
A:-7--7-7-7-10-7--7-7-10-7-10--5-5-5-5-5-5-5-5-5-5-|
E:-------------------------------------------------|

e:----------------------------|
B:----------------------------|
G:----------------------------|
D:-9--9-9-9----9--9-9---------|
A:-7--7-7-7-10-7--7-7-10-7-10-|
E:----------------------------|

e:----------------------------------------|
B:----------------------------------------|
G:-9-9-9-9-9-9-9-9-9--7-7-7-7-7-7-7-7-7-7-|
D:-7-7-7-7-7-7-7-7-7--5-5-5-5-5-5-5-5-5-5-|
A:----------------------------------------|
E:----------------------------------------|

e:-------------------------------------------------|
B:-------------------------------------------------|
G:-------------------------------------------------|
D:-9--9-9-9----9--9-9----------7-7-7-7-7-7-7-7-7-7-|
A:-7--7-7-7-10-7--7-7-10-7-10--5-5-5-5-5-5-5-5-5-5-|
E:-------------------------------------------------|

e:----------------------------|
B:----------------------------|
G:----------------------------|
D:-9--9-9-9----9--9-9---------|
A:-7--7-7-7-10-7--7-7-10-7-10-|
E:----------------------------|

e:-------------------------------------|
B:-------------------------------------|
G:-------------------------------------|
D:-12-12-12-12-12-12-12-12--14~~~~~~~--|
A:-10-10-10-10-10-10-10-10--12~~~~~~~--|
E:-------------------------------------|

e:-------------------------------------------|
B:-------------------------------------------|
G:--------------------------15~~-12~~--------|
D:------------------------------------14~~~--|
A:-5-7-7-5-7-7-5-7-7-5-7-5-------------------|
E:-------------------------------------------|

e:--------------------------------------------|
B:--------------------------------------------|
G:--------------------------14b~~-12~~-14bf~~-|
D:--------------------------------------------|
A:-5-7-7-5-7-7-5-7-7-5-7-5--------------------|
E:--------------------------------------------|

e:-------------------------------------------|
B:-------------------------------------------|
G:--------------------------15~~-12~~--------|
D:------------------------------------14~~~--|
A:-5-7-7-5-7-7-5-7-7-5-7-5-------------------|
E:-------------------------------------------|

e:---------------------------------|
B:---------------------------------|
G:---------------------------------|
D:-------------------------7-5-----|
A:-5-7-7-5-7-7-5-7-7-5-7-5-----7-5-|
E:---------------------------------|

e:------------------------------------------------------------------------------------|
B:------------------------------------------------------------------------------------|
G:--------------------------15~~-12~~-------------14b~~-12~~-14bf~~---15~~-12~~-------|
D:------------------------------------14~~~~~~~----------------------------------14~~-|
A:-5-7-7-5-7-7-5-7-7-5-7-5------------------------------------------------------------|
E:------------------------------------------------------------------------------------|

                                                                       x3
e:-----------------------------------------------------------------------|
B:-------------------------------------------------------------------17b-|
G:-15p14-----15p14----15p14-------------15p14-----15p14----15p14-----17b-|
D:-------17--------17-------17--14~~~---------17--------17-------17------|
A:-----------------------------------------------------------------------|
E:-----------------------------------------------------------------------|

e:------------------------------------|
B:------------------------------------|
G:-15p14-----15p14----15p14-----------|
D:-------17--------17-------17--14~~~-|
A:------------------------------------|
E:------------------------------------|

  gt1
e:-------------------------|
B:-------------------------|
G:-------------------------|
D:-12-14-14-12-14-14-12-14-|
A:-------------------------|
E:-------------------------|
  gt2
e:-----------------|
B:-----------------|
G:-----------------|
D:-----------------|
A:-5-7-7-5-7-7-5-7-|
E:-----------------|



http://tank86.com/                               website

http://www.facebook.com/TANK86rock               facebook 

http://www.myspace.com/tank86rock                myspace

http://www.twitter.com/tank86rock                twitter

http://www.youtube.com/user/TANK86rock           youtube

http://www.risingmagma.com/                      record label



hillo son mex

29/07/11
Tap to rate this tab
 
# A B C D E F G H I J K L M N O P Q R S T U V W X Y Z