Song name
# A B C D E F G H I J K L M N O P Q R S T U V W X Y Z

Tank - This Means War tab

Help us improve GuitareTab! Take a short survey!
-------------------------------------------------------------------------------
			     THIS MEANS WAR - Tank
-------------------------------------------------------------------------------

Tuning: EADGBe

RIFF 1 (16x)
e|---------------------------------------------------------------------------|
B|---------------------------------------------------------------------------|
G|---------------------------------------------------------------------------|
D|-----4----4--0--4--0-0----4----9--6--4-------------------------------------|
A|-----2----2-----2---------2----7--4--2-------------------------------------|
E|---------------------------------------------------------------------------|

RIFF 2 (6x)
e|---------------------------------------------------------------------------|
B|---------------------------------------------------------------------------|
G|---------------------------------------------------------------------------|
D|-----4---------------------4-----------------------------------------------|
A|-----2---2-2-2-2-2-2-2-2-----2-5-4-----------------------------------------|
E|---------------------------------------------------------------------------|
           x x x x x x x x

RIFF 3
e|---------------------------------------------------------------------------|
B|---------------------------------------------------------------------------|
G|---------------------------------------------------------------------------|
D|---------------------------------------------------------------------------|
A|-----5-----4---------------------------------------------------------------|
E|-----3-----2---------------------------------------------------------------|

RIFF 1 (2x)
e|---------------------------------------------------------------------------|
B|---------------------------------------------------------------------------|
G|---------------------------------------------------------------------------|
D|-----4----4--0--4--0-0---4----9--6--4--------------------------------------|
A|-----2----2-----2--------2----7--4--2--------------------------------------|
E|---------------------------------------------------------------------------|

RIFF 4
e|---------------------------------------------------------------------------|
B|---------------------------------------------------------------------------|
G|---------------------------------------------------------------------------|
D|-----------------------------7-----7-7-7-----------------------------------|
A|-----5-----4-----2-----7-7-7-5-----5-5-5-7---------------------------------|
E|-----3-----2-----0-----5-5-5-------------5---------------------------------|

RIFF 1 (8x)
e|---------------------------------------------------------------------------|
B|---------------------------------------------------------------------------|
G|---------------------------------------------------------------------------|
D|-----4----4--0--4--0-0----4----9--6--4-------------------------------------|
A|-----2----2-----2---------2----7--4--2-------------------------------------|
E|---------------------------------------------------------------------------|

RIFF 2 (6x)
e|---------------------------------------------------------------------------|
B|---------------------------------------------------------------------------|
G|---------------------------------------------------------------------------|
D|-----4---------------------4-----------------------------------------------|
A|-----2---2-2-2-2-2-2-2-2-----2-5-4-----------------------------------------|
E|---------------------------------------------------------------------------|
           x x x x x x x x

RIFF 3
e|---------------------------------------------------------------------------|
B|---------------------------------------------------------------------------|
G|---------------------------------------------------------------------------|
D|---------------------------------------------------------------------------|
A|-----5-----4---------------------------------------------------------------|
E|-----3-----2---------------------------------------------------------------|

RIFF 1 (2x)
e|---------------------------------------------------------------------------|
B|---------------------------------------------------------------------------|
G|---------------------------------------------------------------------------|
D|-----4----4--0--4--0-0---4----9--6--4--------------------------------------|
A|-----2----2-----2--------2----7--4--2--------------------------------------|
E|---------------------------------------------------------------------------|

RIFF 4
e|---------------------------------------------------------------------------|
B|---------------------------------------------------------------------------|
G|---------------------------------------------------------------------------|
D|-----------------------------7-----7-7-7-----------------------------------|
A|-----5-----4-----2-----7-7-7-5-----5-5-5-7---------------------------------|
E|-----3-----2-----0-----5-5-5-------------5---------------------------------|

RIFF 1 (16x)
e|---------------------------------------------------------------------------|
B|---------------------------------------------------------------------------|
G|---------------------------------------------------------------------------|
D|-----4----4--0--4--0-0----4----9--6--4-------------------------------------|
A|-----2----2-----2---------2----7--4--2-------------------------------------|
E|---------------------------------------------------------------------------|

    BEFORE SOLO                           RYTHM FOR SOLO
e|---------------------------------------------------------------------------|
B|---------------------------------------------------------------------------|
G|---------------------------------------------------------------------------|
D|-----4---------------------------------------------------------------------|
A|-----2----------------------------------9-----7-----5-----2----------------|
E|----------------------------------------7-----5-----3-----0----------------|

SOLO
e|---------------------------------------------------12b12p10-12-------------|
B|-----15--15---15-----15b-15-14-12--12h14p12--10----------------------------|
G|-----14b-14b-----14b-------------------------------------------------------|
D|---------------------------------------------------------------------------|
A|---------------------------------------------------------------------------|
E|---------------------------------------------------------------------------|

e|-----17-15-14--------------------------------------------------------------|
B|---------------17-15-14----------------------------------------------------|
G|--------------------------16-14\12-14---12-----14-----16-----11hb----------|
D|---------------------------------------------------------------------------|
A|---------------------------------------------------------------------------|
E|---------------------------------------------------------------------------|

e|---------------------------------------------------------------------------|
B|---------------------------------------------------------------------------|
G|-----9b--9p7h9-9b--7-------------------------------------------------------|
D|----------------------9p7--9p7---------------------------------------------|
A|--------------------------------9p7--9p7--7p5----------5-------------------|
E|----------------------------------------------7-----------7--7-------------|

e|---------------------------------------------------------------------------|
B|---------------------------------------------------------------------------|
G|-----------------------------------------7---7h9p7-9p7-7h9p7-7-------------|
D|-----------------------------7---7h9p7-9---9---------------------9---7-----|
A|-----------5---5h7p5h7/9-7h9---9-------------------------------------------|
E|-----7p5-7---7-------------------------------------------------------------|

e|---------7------7--9-10-9-7------------------------------------------------|
B|-------7------7-------------10/12-----12-14-15-12--12-14-15-12--14-15-12---|
G|----9b-----9b--------------------------------------------------------------|
D|---------------------------------------------------------------------------|
A|---------------------------------------------------------------------------|
E|---------------------------------------------------------------------------|

e|--------7----------7----------7--------------------------------------------|
B|----------10p7-------10p7-------10p7---10p7h10p7h10p7h10p7h10p7h10p7...----|
G|---9b-----------9b---------9b----------------------------------------------|
D|---------------------------------------------------------------------------|
A|---------------------------------------------------------------------------|
E|---------------------------------------------------------------------------|

e|--10p7h10p7h10p7h10p7------------------------------------------------------|
B|----------------------10p7h10p7h10p7h10p7----------------------------------|
G|------------------------------------------9p7h9p7h9p7h9p7--9b-7h9b---------|
D|--------------------------------------------------------------------9p7h9--|
A|---------------------------------------------------------------------------|
E|---------------------------------------------------------------------------|

e|-----14--10--12--9--10--7--9------7-----------14--10--12--9--10--9--10-----|
B|------------------------------10-----7-------------------------------------|
G|---------------------------------------------------------------------------|
D|---------------------------------------------------------------------------|
A|---------------------------------------------------------------------------|
E|---------------------------------------------------------------------------|

e|---14--10--12--9--10--7--9------7------------17-----17-----17-----17-------|
B|----------------------------10-----7-----17b----17b----17b----17b----17b---|
G|---------------------------------------------------------------------------|
D|---------------------------------------------------------------------------|
A|---------------------------------------------------------------------------|
E|---------------------------------------------------------------------------|

e|---------------------------------------------------------------------------|
B|---------------------------------------------------------------------------|
G|-----------6-7----6-7--4--3----------11--9--7--9--7--6--4------------------|
D|-----9---9------9----------------------------------------------------------|
A|---------------------------------------------------------------------------|
E|---------------------------------------------------------------------------|

e|---------------------------------------------------------------------------|
B|-------7-10p7----7-10p7----7-10p7----7-10p7--------------------------------|
G|----9b--------9b--------9b--------9b----------9p7--------------------------|
D|--------------------------------------------------9p7h9p7------------------|
A|----------------------------------------------------------9\5h7p5----------|
E|------------------------------------------------------------------7p5h7----|

RIFF 2 (4x)
e|---------------------------------------------------------------------------|
B|---------------------------------------------------------------------------|
G|---------------------------------------------------------------------------|
D|-----4---------------------4-----------------------------------------------|
A|-----2---2-2-2-2-2-2-2-2-----2-5-4-----------------------------------------|
E|---------------------------------------------------------------------------|
           x x x x x x x x

RIFF 3
e|---------------------------------------------------------------------------|
B|---------------------------------------------------------------------------|
G|---------------------------------------------------------------------------|
D|---------------------------------------------------------------------------|
A|-----5-----4---------------------------------------------------------------|
E|-----3-----2---------------------------------------------------------------|

RIFF 1 (2x)
e|---------------------------------------------------------------------------|
B|---------------------------------------------------------------------------|
G|---------------------------------------------------------------------------|
D|-----4----4--0--4--0-0---4----9--6--4--------------------------------------|
A|-----2----2-----2--------2----7--4--2--------------------------------------|
E|---------------------------------------------------------------------------|

RIFF 4
e|---------------------------------------------------------------------------|
B|---------------------------------------------------------------------------|
G|---------------------------------------------------------------------------|
D|-----------------------------7-----7-7-7-----------------------------------|
A|-----5-----4-----2-----7-7-7-5-----5-5-5-7---------------------------------|
E|-----3-----2-----0-----5-5-5-------------5---------------------------------|

RIFF 1 (24x + fadeaway)
e|---------------------------------------------------------------------------|
B|---------------------------------------------------------------------------|
G|---------------------------------------------------------------------------|
D|-----4----4--0--4--0-0----4----9--6--4-------------------------------------|
A|-----2----2-----2---------2----7--4--2-------------------------------------|
E|---------------------------------------------------------------------------|

OUTRO SOLO

e|---------------------------------------------------------------------10----|
B|------------------10------10-----------------------------------------10b---|
G|---9p7---9b---7h9----7--7----7---7-----------------------------------------|
D|-------9----------------------------9p7h9-------------------------7--------|
A|-------------------------------------------9--5hb-5---5-7----5-7-----------|
E|----------------------------------------------------------7----------------|

e|-----10b--10b--10-9--9-10---9-10---9h10p9-10b--12b-12b---17b-17b-17b...----|
B|--------------------------7------7-----------------------------------------|
G|---------------------------------------------------------------------------|
D|---------------------------------------------------------------------------|
A|---------------------------------------------------------------------------|
E|---------------------------------------------------------------------------|

| /  slide up
| \  slide down
| h  hammer-on
| p  pull-off
| ~  vibrato
| +  harmonic
| x  Mute note
| pb pre-bend
| b  bend (full)
| hb bend (half)



===============================================================================
Related for This Means War tab