Song name
# A B C D E F G H I J K L M N O P Q R S T U V W X Y Z

Tank - Turn Your Head Around tab

---------------------------------------------------------------------------
                             TURN YOUR HEAD AROUND - TANK

Tabbed by: RICK M
E-mail: rickmorin89@gmail.com

Tuning: Standard E

Guitar Rhythm (Intro)

e|-------------------------------------------------------------------------|
B|-------------------------------------------------------------------------|
G|-----------------------------------22--44--------------------------------|
D|-444444444444--2222--444444444444--22--44--444444444444--2222------------|
A|-444444444444--2222--444444444444--00--22-444444444444--2222------------|
E|-222222222222--0000--222222222222----------222222222222--0000------------|

e|-------------------------------------------------------------------------|
B|-------------------------------------------------------------------------|
G|---------------22--------------------------------------------------------|
D|-444444444444--22--------------------------------------------------------|
A|-444444444444--00--------------------------------------------------------|
E|-222222222222------------------------------------------------------------|

Guitar Lead (Intro)

e|-------------------------------------------------------------------------|
B|--------------------------------------------------------------------5b7--|
G|---4b6-2-4p2p0---------2----4b6-2-4p2p0--------4b6-2-4p2p0---------------|
D|---------------42h3h4---4--------------4-2----------------4-2h3h4-------|
A|-------------------------------------------------------------------------|
E|-------------------------------------------------------------------------|

e|-------------------------------------------------------------------------|
B|--5b7-5b7-5b7b5----------------------------------------------------------|
G|----------------6p5-2----------------------------------------------------|
D|-------------------------------------------------------------------------|
A|-------------------------------------------------------------------------|
E|-------------------------------------------------------------------------|

Guitar Rhythm (Verse + Bridge)

e|-------------------------------------------------------------------------|
B|-------------------------------------------------------------------------|
G|-------------------------------------------------------------------------|
D|-444444444444-2222-444444444444-77-99-444444444444-2222-444444444444-----|
A|-444444444444-2222-444444444444-77-99-444444444444-2222-444444444444-----|
E|-222222222222-0000-222222222222-55-77-222222222222-0000-222222222222-----|

e|-------------------------------------------------------------------------|
B|-------------------------------------------------------------------------|
G|-----------------------99----------------99---------------11-------------|
D|-77-9-7-99999999999-77-99-99999999999-77-99-1111111111-99-11-111111111-7-|
A|-77-9-7-99999999999-77-77-99999999999-77-77-1111111111-99-99-111111111-7-|
E|-55-7-5-77777777777-55----77777777777-55----9999999999-77----999999999-5-|



Guitar Rhythm (Chorus)

e|-------------------------------------------------------------------------|
B|-------------------------------------------------------------------------|
G|-------------------7777777777--9999-1111111111-9999-7777777777-------9999|
D|-4444444444--2222--7777777777--9999-1111111111-9999-7777777777-9999--9999|
A|-4444444444--2222--5555555555--7777-9999999999-7777-5555555555-9999--7777|
E|-2222222222--0000----------------------------------------------7777------|

*Repeat Everything Again Minus Chorus*

Lead Part (Before Solo)

e|-------------------------------------------------------------------------|
B|-------------------------------------------------------------------------|
G|-------------------------------------------------------------------------|
D|-------------------------------------------------------------------------|
A|-------------------------------------------------------------------------|
E|--9-8-7-6-5-6-7-8-11-10-9-8-7-8-9-10-------------------------------------|

*SOLO*

*Repeat Chorus Multiple times
 
END



************************************

| /   slide up
| \   slide down
| h   hammer-on
| p   pull-off
| ~   vibrato
| +   harmonic
| x   Mute note
| b   Bend
| pb  Pre-bend
| br  Bend release
| pbr Pre-bend release
| brb Bend release bend
| * let it ring

************************************
Tap to rate this tab
# A B C D E F G H I J K L M N O P Q R S T U V W X Y Z