Song name
# A B C D E F G H I J K L M N O P Q R S T U V W X Y Z

Tankard - Beermuda tab

Tankard - Beermuda

Tabbed by MeatGrinder

My Mail: sery92@yandex.ru

Any corrections are welcome

Standard Tuning (E A D G B E)

.  - palm mute                  /  - slide up to
\  - slide down to              ~  - vibrato
"  - tremelo picking           ( ) - ghost note
b  - bend                       h  - hammer-on
fb - full bend (1 step)         p  - pull-off
hb - half bend (1/2 step)       r  - release a bend
t  - tapping                    ah - artificial harmonic


Intro/Verse/Solo Riff

E|---------------------------------------------|
B|---------------------------------------------|
G|---------------------------------------------|
D|-9------------9----7-4-9---------------7-8-7-|
A|-7-----6------7----5-2-7-----6------7--5-6-5-|
E|--0000-4-0000--0000-----0000-4-0000-5-0------|
    ....   ....  ....     ....   ....   .

E|--------------------------------------------|
B|--------------------------------------------|
G|--------------------------------------------|
D|-9------------9----7-4-9--------------------|
A|-7-----6------7----5-2-7-----6------8-8-8-6-|
E|--0000-4-0000--0000-----0000-4-0000-6-6-6-4-|
    ....   ....  ....     ....   ....

Middle Part

E|--------------------------------|
B|--------------------------------|
G|--------------------------------|
D|-------7--5-8-5--------7--------|
A|-5-5-5-5--3-6-3--5-5-5-5--8-6-3-|
E|--------------------------6-4-1-|
   . . . .         . . . .

E|--------------------------------|
B|--------------------------------|
G|--------------------------------|
D|-------7--5-8-5--------7--8-5-9-|
A|-5-5-5-5--3-6-3--5-5-5-5--6-3-7-|
E|--------------------------------|
   . . . .         . . . .

Bridge

E|-----------------------------------------------------|
B|-----------------------------------------------------|
G|-----------------------------------------------------|
D|---------4p5-4p5-------7--7----------4p5-4p5---------|
A|-0-0-0-0-2p3-2p3-0-0-0-5--5--0-0-0-0-2p3-2p3-5--4--3-|
E|---------------------------------------------3--2--1-|
   . . . .         . . .       . . . .

E|----------------------------------------------------------------|
B|----------------------------------------------------------------|
G|----------------------------------------------------------------|
D|---------4p5-4p5-------7--7----------4p5-4p5--------------------|
A|-0-0-0-0-2p3-2p3-0-0-0-5--5--0-0-0-0-2p3-2p3-5--4--3--5-5-5-4-3-|
E|---------------------------------------------3--2--1--3-3-3-2-1-|
   . . . .         . . .       . . . .

Chorus

E|----------------------------------------------------|
B|----------------------------------------------------|
G|----------------------------------------------------|
D|---------7-9----------5-7---------------------------|
A|-5-5-5-5-5-7--3-3-3-3-3-5----------5-4----------7-9-|
E|---------------------------3-3-3-3-3-2--5-5-5-5-5-7-|
   . . . .      . . . .      . . . .      . . . .

E|----------------------------------------------------|
B|----------------------------------------------------|
G|----------------------------------------------------|
D|---------7-9----------5-7----------4-4----------4-4-|
A|-5-5-5-5-5-7--3-3-3-3-3-5----------2-2----------2-2-|
E|---------------------------2-2-2-2------2-2-2-2-----|
   . . . .      . . . .      . . . .      . . . .

Pre-solo riff

E|---------------------------------|
B|---------------------------------|
G|---------------------------------|
D|-------------------7-------------|
A|-------------------5-----7---4-5-|
E|-0-0-0-000-000-0-0---0-0-5-0-2-3-|
   . . . ... ... . .   . .   .

E|--------------------------------------|
B|--------------------------------------|
G|--------------------------------------|
D|-------------------7---------9-10-11\-|
A|-------------------5-----7---7-8--9\--|
E|-0-0-0-000-000-0-0---0-0-5-0----------|
   . . . ... ... . .   . .   .
Tap to rate this tab
# A B C D E F G H I J K L M N O P Q R S T U V W X Y Z