Tankard - The Horde tab

#----------------------------------PLEASE NOTE---------------------------------#
#This file is the author's own work and represents their interpretation of the #
#song. You may only use this file for private study, scholarship, or research. #
#------------------------------------------------------------------------------##

                                    THE HORDE
                             As recorded by Tankard
                     (From the 2004 Album BEAST OF BOURBON)

Words and Music by Tankard
Arranged by Tankard
Transcribed by Diego Vilca

Gtr I (Eb Ab Db Gb Bb Eb) - 'Untitled'
Gtr II (Eb Ab Db Gb Bb Eb) - 'Untitled'
Gtr III (Eb Ab Db Gb Bb Eb) - 'Untitled'

    Q=190
    Gtrs I, II
    S S S S E +E  S S S S E +E    S S S S S S S S S S S S E +E   6x
||------------------------------|--------------------------------||----|
||o-----------------------------|-------------------------------o||----|
||------------------------------|--------------------------------||----|
||------------------------------|--------------------------------||----|
||o-----------------------------|-------------------------------o||----|
||--0-0-0-0-0-(x)-0-0-0-0-0-(x)-|-0-0-0-0-0-0-0-0-0-0-0-0-0-(x)--||----|


  Gtrs I, II
  PM----|      PM----|         PM----|              ~
  S S S S  E E S S S S  E  E   S S S S  E E  E E  E E
|----------------------------|------------------------|
|----------------------------|------------------------|
|----------------------------|------------------------|
|----------------------------|-----------------9------|
|---------10p9---------14p10-|---------10-9-10---10p9-|
|-0-0-0-0------0-0-0-0-------|-0-0-0-0----------------|


  PM----|      PM----|         PM----|              ~~~
  S S S S  E E S S S S  E  E   S S S S  E E  E E E +E
|----------------------------|-------------------------|
|----------------------------|-------------------------|
|----------------------------|-------------------------|
|----------------------------|-----------------9-------|
|---------10p9---------14p10-|---------10-9-10---9-(9)-|
|-0-0-0-0------0-0-0-0-------|-0-0-0-0-----------------|


  Gtr I
  PM----|      PM----|         PM----|              ~
  S S S S  E E S S S S  E  E   S S S S  E E  E E  E E
|----------------------------|------------------------|
|----------------------------|------------------------|
|----------------------------|------------------------|
|----------------------------|-----------------9------|
|---------10p9---------14p10-|---------10-9-10---10p9-|
|-0-0-0-0------0-0-0-0-------|-0-0-0-0----------------|
|
| Gtr II
| PM----|      PM----|         PM----|              ~
| S S S S  E E S S S S  E  E   S S S S  E E  E E  E E
|----------------------------|------------------------|
|----------------------------|------------------------|
|----------------------------|------------------------|
|----------------------------|-----------------5------|
|----------7p6----------9p=7-|----------7-6--7----7p6-|
|-0-0-0-0------0-0-0-0-------|-0-0-0-0----------------|


  PM----|      PM----|         PM----|              ~~~
  S S S S  E E S S S S  E  E   S S S S  E E  E E E +E
|----------------------------|-------------------------|
|----------------------------|-------------------------|
|----------------------------|-------------------------|
|----------------------------|-----------------9-------|
|---------10p9---------14p10-|---------10-9-10---9-(9)-|
|-0-0-0-0------0-0-0-0-------|-0-0-0-0-----------------|
|
| PM----|      PM----|         PM----|              ~~~
| S S S S  E E S S S S  E  E   S S S S  E E  E E E +E
|----------------------------|-------------------------|
|----------------------------|-------------------------|
|----------------------------|-------------------------|
|----------------------------|-----------------5-------|
|----------7p6----------9p=7-|----------7-6--7---6-(6)-|
|-0-0-0-0------0-0-0-0-------|-0-0-0-0-----------------|


  Gtrs I, II
  E E +Q   +Q   +Q     E E +Q   +Q   +Q     E E +Q   +Q   +Q
|--------------------|--------------------|----------------------|
|--------------------|--------------------|----------------------|
|--------------------|--------------------|----------------------|
|--------------------|--------------------|----------------------|
|-2-2-(x)--(x)--(x)--|-2-2-(x)--(x)--(x)--|-2-2-(x)--(x)--(x)----|
|-0-0-(x)--(x)--(x)--|-0-0-(x)--(x)--(x)--|-0-0-(x)--(x)--(x)----|


  Gtr II
   PM     PM    PM ~~~~~~~
   E E e  E  E  E  E  +E
|----------------------------|
|----------------------------|
|----------------------------|
|----5-------5---------------|
|--7------7-----6--7--(7)----|
|------0---------------------|
|
| Gtr I
|  PM  PM|   ~~~PM ~~
|  E E e  E  E  E  E  +E
|----------------------------|
|----------------------------|
|----------------------------|
|----9------[9]--------------|
|-10-----10-----9-10-(10)----|
|------0---------------------|


    Gtrs I, II
    PM|         ~~~~  PM|         ~~~~~~  PM|         ~~~~  PM  PM|   PM~~~~~~
    E E E E E E E E   E E E E E E E +E    E E E E E E E E   E E E E E E E +E
||------------------|-------------------|-----------------|-------------------||
||o-----------------|-------------------|-----------------|------------------o||
||------------------|-------------------|-----------------|-------------------||
||------------5-----|-----------5-------|-----------5-----|---6-----5---------||
||o-----7-6-7---7-6-|-----7-6-7---6-(6)-|-----7-6-7---6-7-|-7-----7---6-7-(7)o||
||--0-0-------------|-0-0---------------|-0-0-------------|-----0-------------||


  Gtrs I, II
  PM|      PM|       PM|               PM|      PM|       PM|         ~~~~~~
  E E  E E E E E E   E E E E E E E E   E E  E E E E E E   E E E E E E E +E
|------------------|-----------------|------------------|-------------------|
|------------------|-----------------|------------------|-------------------|
|------------------|-----------------|------------------|-------------------|
|-----10S9-----7S9-|-----------------|-----10S9-----7S9-|-------------------|
|------8-7-----5-7-|-----5-7-8-7-5h7-|------8-7-----5-7-|-----7-8-7-5-4-(4)-|
|-0-0------0-0-----|-0-0-------------|-0-0------0-0-----|-0-0---------------|


  PM|      PM|       PM|               PM|      PM|       PM|           ~~~~~~~
  E E  E E E E E E   E E E E E E E E   E E  E E E E E E   E E E E  E E  E  +E
|------------------|-----------------|------------------|----------------------|
|------------------|-----------------|------------------|----------------------|
|------------------|-----------------|------------------|----------------------|
|-----10S9-----7S9-|-----------------|-----10S9-----7S9-|----------------------|
|------8-7-----5-7-|-----5-7-8-7-5h7-|------8-7-----5-7-|-----8-7--------------|
|-0-0------0-0-----|-0-0-------------|-0-0------0-0-----|-0-0-----10-9-10-(10)-|


  Gtr I
  PM----|      PM----|         PM----|              ~
  S S S S  E E S S S S  E  E   S S S S  E E  E E  E E
|----------------------------|------------------------|
|----------------------------|------------------------|
|----------------------------|------------------------|
|----------------------------|-----------------9------|
|---------10p9---------14p10-|---------10-9-10---10p9-|
|-0-0-0-0------0-0-0-0-------|-0-0-0-0----------------|
|
| Gtr II
| PM----|      PM----|         PM----|              ~
| S S S S  E E S S S S  E  E   S S S S  E E  E E  E E
|----------------------------|------------------------|
|----------------------------|------------------------|
|----------------------------|------------------------|
|----------------------------|-----------------5------|
|----------7p6----------9p=7-|----------7-6--7----7p6-|
|-0-0-0-0------0-0-0-0-------|-0-0-0-0----------------|


  PM----|      PM----|         PM----|              ~~~
  S S S S  E E S S S S  E  E   S S S S  E E  E E E +E
|----------------------------|-------------------------|
|----------------------------|-------------------------|
|----------------------------|-------------------------|
|----------------------------|-----------------9-------|
|---------10p9---------14p10-|---------10-9-10---9-(9)-|
|-0-0-0-0------0-0-0-0-------|-0-0-0-0-----------------|
|
| PM----|      PM----|         PM----|              ~~~
| S S S S  E E S S S S  E  E   S S S S  E E  E E E +E
|----------------------------|-------------------------|
|----------------------------|-------------------------|
|----------------------------|-------------------------|
|----------------------------|-----------------5-------|
|----------7p6----------9p=7-|----------7-6--7---6-(6)-|
|-0-0-0-0------0-0-0-0-------|-0-0-0-0-----------------|


  Gtrs I, II
  PM|      PM|       PM|               PM|      PM|       PM|         ~~~~~~
  E E  E E E E E E   E E E E E E E E   E E  E E E E E E   E E E E E E E +E
|------------------|-----------------|------------------|-------------------|
|------------------|-----------------|------------------|-------------------|
|------------------|-----------------|------------------|-------------------|
|-----10S9-----7S9-|-----------------|-----10S9-----7S9-|-------------------|
|------8-7-----5-7-|-----5-7-8-7-5h7-|------8-7-----5-7-|-----7-8-7-5-4-(4)-|
|-0-0------0-0-----|-0-0-------------|-0-0------0-0-----|-0-0---------------|


  PM|      PM|       PM|               PM|      PM|       PM|           ~~~~~~~
  E E  E E E E E E   E E E E E E E E   E E  E E E E E E   E E E E  E E  E  +E
|------------------|-----------------|------------------|----------------------|
|------------------|-----------------|------------------|----------------------|
|------------------|-----------------|------------------|----------------------|
|-----10S9-----7S9-|-----------------|-----10S9-----7S9-|----------------------|
|------8-7-----5-7-|-----5-7-8-7-5h7-|------8-7-----5-7-|-----8-7--------------|
|-0-0------0-0-----|-0-0-------------|-0-0------0-0-----|-0-0-----10-9-10-(10)-|


    PM-------------------------------------------------
    S S S S S S S S E E E E   S S S S S S S S E E E E
||--------------------------|-------------------------|
||o-------------------------|-------------------------|
||--------------------------|-------------------------|
||--------------------------|-------------------------|
||o-----------------------1-|-2-2-2-2-2-2-2-2---------|
||--0-0-0-0-0-0-0-0-2-1-2---|-----------------3-3-2-2-|


 -------------------------------------------------|
  S S S S S S S S E E E E   S S S S S S S S E E E E
|-------------------------|---------------------------||--|
|-------------------------|--------------------------o||--|
|-------------------------|---------------------------||--|
|-------------------------|---------------------------||--|
|-----------------------1-|-2-2-2-2-2-2-2-2-3-2------o||--|
|-0-0-0-0-0-0-0-0-2-1-2---|---------------------3-2---||--|


    E +E  E E E E E E   E E +E  E E +E  E +E
||--------------------|-----------------------|
||o-------------------|-----------------------|
||--------------------|-----------------------|
||--2-(2)-----0S2---4-|-----------5-(5)-------|
||o-2-(2)-----0S2---2-|---3-(3)---3-(3)-5-(5)-|
||--0-(0)-0-0-----0---|-0-1-(1)-0-------3-(3)-|


  E +E  E E E E E E   E E +E  E E +E  E +E
|-------------------|-----------------------||
|-------------------|----------------------o||
|-------------------|-----------------------||
|-2-(2)-----0S2---4-|-----------------------||
|-2-(2)-----0S2---2-|---3-(3)---5-(5)-5-(5)o||
|-0-(0)-0-0-----0---|-0-1-(1)-0-3-(3)-3-(3)-||


  Gtrs I, II
  PM----|   PM--|   PM--|   PM------------|   PM--------------------|
  E E E E E E E E E E E E E E E E   E E E E E E E E   E E E E E E E E
|---------------------------------|-----------------|------------------|
|---------------------------------|-----------------|------------------|
|---------------------------------|-----------------|------------------|
|---------------------------------|-----------------|------------------|
|---------------------------------|-----------------|-2-2-2-2-3-2------|
|-0-0-0-0-2S3-3-3-7S1-1-1-8S3-3-3-|-0-0-0-0-2S3-3-3-|-------------3-2--|


  Gtrs I, II
  PM----|   PM--|   PM--|   PM------------|   PM--------------------|
  E E E E E E E E E E E E E E E E   E E E E E E E E   E E E E E E E E
|---------------------------------|-----------------|------------------|
|---------------------------------|-----------------|------------------|
|---------------------------------|-----------------|------------------|
|---------------------------------|-----------------|------------------|
|---------------------------------|-----------------|------------------|
|-0-0-0-0-2S3-3-3-7S1-1-1-8S3-3-3-|-0-0-0-0-2S3-3-3-|-5-5-5-5-3-3-2-2--|


  Gtrs I, II
  E E +Q   +Q   +Q     E E +Q   +Q   +Q     E E +Q   +Q   +Q
|--------------------|--------------------|----------------------|
|--------------------|--------------------|----------------------|
|--------------------|--------------------|----------------------|
|--------------------|--------------------|----------------------|
|-2-2-(x)--(x)--(x)--|-2-2-(x)--(x)--(x)--|-2-2-(x)--(x)--(x)----|
|-0-0-(x)--(x)--(x)--|-0-0-(x)--(x)--(x)--|-0-0-(x)--(x)--(x)----|


  Gtr II
   PM     PM    PM ~~~~~~~
   E E e  E  E  E  E  +E
|----------------------------|
|----------------------------|
|----------------------------|
|----5-------5---------------|
|--7------7-----6--7--(7)----|
|------0---------------------|
|
| Gtr I
|  PM  PM|   ~~~PM ~~
|  E E e  E  E  E  E  +E
|----------------------------|
|----------------------------|
|----------------------------|
|----9------[9]--------------|
|-10-----10-----9-10-(10)----|
|------0---------------------|


  Gtrs I, II
  PM|      PM|       PM|               PM|      PM|       PM|         ~~~~~~
  E E  E E E E E E   E E E E E E E E   E E  E E E E E E   E E E E E E E +E
|------------------|-----------------|------------------|-------------------|
|------------------|-----------------|------------------|-------------------|
|------------------|-----------------|------------------|-------------------|
|-----10S9-----7S9-|-----------------|-----10S9-----7S9-|-------------------|
|------8-7-----5-7-|-----5-7-8-7-5h7-|------8-7-----5-7-|-----7-8-7-5-4-(4)-|
|-0-0------0-0-----|-0-0-------------|-0-0------0-0-----|-0-0---------------|


  PM|      PM|       PM|               PM|      PM|       PM|           ~~~~~~~
  E E  E E E E E E   E E E E E E E E   E E  E E E E E E   E E E E  E E  E  +E
|------------------|-----------------|------------------|----------------------|
|------------------|-----------------|------------------|----------------------|
|------------------|-----------------|------------------|----------------------|
|-----10S9-----7S9-|-----------------|-----10S9-----7S9-|----------------------|
|------8-7-----5-7-|-----5-7-8-7-5h7-|------8-7-----5-7-|-----8-7--------------|
|-0-0------0-0-----|-0-0-------------|-0-0------0-0-----|-0-0-----10-9-10-(10)-|


    PM-------------------------------------------------
    S S S S S S S S E E E E   S S S S S S S S E E E E
||--------------------------|-------------------------|
||o-------------------------|-------------------------|
||--------------------------|-------------------------|
||--------------------------|-------------------------|
||o-----------------------1-|-2-2-2-2-2-2-2-2---------|
||--0-0-0-0-0-0-0-0-2-1-2---|-----------------3-3-2-2-|


 -------------------------------------------------|
  S S S S S S S S E E E E   S S S S S S S S E E E E
|-------------------------|---------------------------||--|
|-------------------------|--------------------------o||--|
|-------------------------|---------------------------||--|
|-------------------------|---------------------------||--|
|-----------------------1-|-2-2-2-2-2-2-2-2-3-2------o||--|
|-0-0-0-0-0-0-0-0-2-1-2---|---------------------3-2---||--|


    E +E  E E E E E E   E E +E  E E +E  E +E
||--------------------|-----------------------|
||o-------------------|-----------------------|
||--------------------|-----------------------|
||--2-(2)-----0S2---4-|-----------5-(5)-------|
||o-2-(2)-----0S2---2-|---3-(3)---3-(3)-5-(5)-|
||--0-(0)-0-0-----0---|-0-1-(1)-0-------3-(3)-|


  E +E  E E E E E E   E E +E  E E +E  E +E
|-------------------|-----------------------||
|-------------------|----------------------o||
|-------------------|-----------------------||
|-2-(2)-----0S2---4-|-----------------------||
|-2-(2)-----0S2---2-|---3-(3)---5-(5)-5-(5)o||
|-0-(0)-0-0-----0---|-0-1-(1)-0-3-(3)-3-(3)-||


  Gtrs I, II
  PM----|   PM--|   PM--|   PM------------|   PM--------------------|
  E E E E E E E E E E E E E E E E   E E E E E E E E   E E E E E E E E
|---------------------------------|-----------------|------------------|
|---------------------------------|-----------------|------------------|
|---------------------------------|-----------------|------------------|
|---------------------------------|-----------------|------------------|
|---------------------------------|-----------------|-2-2-2-2----------|
|-0-0-0-0-2S3-3-3-7S1-1-1-8S3-3-3-|-0-0-0-0-2S3-3-3-|---------3-3-2-2--|


  Gtrs I, II
  PM----|   PM--|   PM--|   PM------------|   PM--------------------|
  E E E E E E E E E E E E E E E E   E E E E E E E E   E E E E E E E E
|---------------------------------|-----------------|------------------|
|---------------------------------|-----------------|------------------|
|---------------------------------|-----------------|------------------|
|---------------------------------|-----------------|------------------|
|---------------------------------|-----------------|---------3-2------|
|-0-0-0-0-2S3-3-3-7S1-1-1-8S3-3-3-|-0-0-0-0-2S3-3-3-|-5-5-5-5-----3-2--|


  PM|       PM|        PM|
  E E  E  E E E E  E   E E E E E E E E
|--------------------|-----------------|
|--------------------|-----------------|
|--------------------|-----------------|
|--------------------|-----------5-----|
|-----10S12-----9S10-|-----7-6-7---6h7-|
|-0-0--8S10-0-0-7S=8-|-0-0-------------|


  PM|      PM|         PM|         ~~~~~~
  E E E  E E E  E  E   E E E E E E E +E
|--------------------|-------------------|
|--------------------|-------------------|
|--------------------|-------------------|
|--------------------|-----------5-------|
|-----9S10-----13S14-|-----7-6-7---6-(6)-|
|-0-0-7S=8-0-0-11S12-|-0-0---------------|


  Gtr II
  PM|       PM|        PM|
  E E  E  E E E E  E   E E  E E  E E E  E
|--------------------|--------------------|
|--------------------|--------------------|
|--------------------|--------------------|
|--------------------|-------------5------|
|-----10S12-----9S10-|------7-6--7---6h=7-|
|-0-0--8S10-0-0-7S=8-|-0-0----------------|
|
| Gtr I
| PM|       PM|        PM|
| E E  E  E E E E  E   E E  E E  E E E  E
|--------------------|--------------------|
|--------------------|--------------------|
|--------------------|--------------------|
|--------------------|-------------9------|
|-----10S12-----9S10-|-----10-9-10---9h10-|
|-0-0--8S10-0-0-7S=8-|-0-0----------------|


  PM|      PM|         PM|           ~~~~~~
  E E E  E E E  E  E   E E  E E  E E E +E
|--------------------|---------------------|
|--------------------|---------------------|
|--------------------|---------------------|
|--------------------|-------------5-------|
|-----9S10-----13S14-|------7-6--7---6-(6)-|
|-0-0-7S=8-0-0-11S12-|-0-0-----------------|
|
| PM|      PM|         PM|           ~
| E E E  E E E  E  E   E E  E E  E E E +E
|--------------------|---------------------|
|--------------------|---------------------|
|--------------------|---------------------|
|--------------------|-------------9-------|
|-----9S10-----13S14-|-----10-9-10---9-(9)-|
|-0-0-7S=8-0-0-11S12-|-0-0-----------------|


  Gtr III
  PM-----------------------------------------------------------------
  S  S  S S  S  S S  S  E E  E  E   S  S  S S  S  S S  S  E E  E  E
|---------------------------------|---------------------------------|
|---------------------------------|---------------------------------|
|---------------------------------|---------------------------------|
|---------------------------------|---------------------------------|
|-------------------------------1-|-2--2--2-2--2--2-2--2------------|
|-0--0--0-0--0--0-0--0--2-1--2----|-----------------------3-3--2--2-|
|
| Gtr I
| |-------------6:8-------------|   |-------------6:8-------------|
| S  S  S S  S  S S  S  S S  S  S   S  S  S S  S  S S  S  S S  S  S
|---------------------------------|---------------------------------|
|-5--7--8-5--7--8-5--7--8-5--7--8-|-5--7--8-5--7--8-5--7--8-5--7--8-|
|---------------------------------|---------------------------------|
|---------------------------------|---------------------------------|
|---------------------------------|---------------------------------|
|---------------------------------|---------------------------------|
|
| Gtr II
| |-------------6:8-------------|   |-------------6:8-------------|
| S  S  S S  S  S S  S  S S  S  S   S  S  S S  S  S S  S  S S  S  S
|---------------------------------|---------------------------------|
|-8-10-12-8-10-12-8-10-12-8-10-12-|-8-10-12-8-10-12-8-10-12-8-10-12-|
|---------------------------------|---------------------------------|
|---------------------------------|---------------------------------|
|---------------------------------|---------------------------------|
|---------------------------------|---------------------------------|


 ------------------------------------------------------------------------|
   S  S  S  S  S  S  S  S  E  E  E  E    S  S  S  S  S  S  S  S  E  E  E  E
|-------------------------------------|----------------------------------------|
|-------------------------------------|----------------------------------------|
|-------------------------------------|----------------------------------------|
|-------------------------------------|----------------------------------------|
|-----------------------------------1-|--2--2--2--2--2--2--2--2--3--2----------|
|--0--0--0--0--0--0--0--0--2--1--2----|--------------------------------3--2----|
|
|  |--------------6:8---------------|    |--------------6:8---------------|
|  S  S  S  S  S  S  S  S  S  S  S  S    S  S  S  S  S  S  S  S  S  S  S  S
|-------------------------------------|----------------------------------------|
|--7--8-10--7--8-10--7--8-10--7--8-10-|--7--8-10--7--8-10--7--8-10--7--8-10----|
|-------------------------------------|----------------------------------------|
|-------------------------------------|----------------------------------------|
|-------------------------------------|----------------------------------------|
|-------------------------------------|----------------------------------------|
|
|  |--------------6:8---------------|    |--------------6:8---------------|
|  S  S  S  S  S  S  S  S  S  S  S  S    S  S  S  S  S  S  S  S  S  S  S  S
|-------------------------------------|----------------------------------------|
|-10-12-13-10-12-13-10-12-13-10-12-13-|-10-12-13-10-12-13-10-12-13-10-12-13----|
|-------------------------------------|----------------------------------------|
|-------------------------------------|----------------------------------------|
|-------------------------------------|----------------------------------------|
|-------------------------------------|----------------------------------------|


   PM--------------------------------------------------
   S S    S    S  S S    S    S  E    E     E    E
|-----------------------------------------------------|
|-----------------------------------------------------|
|-----------------------------------------------------|
|-----------------------------------------------------|
|------------------------------------------------1----|
|--0-0----0----0--0-0----0----0--2----1-----2---------|
|
|  |----------------------6:8-----------------------|
|  S    S    S    S    S    S    S  S    S  S  S    S
|-----------------------------------------------------|
|--8---10---12----8---10---12----8-10---12--8-10---12-|
|-----------------------------------------------------|
|-----------------------------------------------------|
|-----------------------------------------------------|
|-----------------------------------------------------|
|
|  |----------------------6:8-----------------------|
|  S    S    S    S    S    S    S  S    S  S  S    S
|-----------------------------------------------------|
|-12---13---15---12---13---15---12-13---15-12-13---15-|
|-----------------------------------------------------|
|-----------------------------------------------------|
|-----------------------------------------------------|
|-----------------------------------------------------|


 ------------------------------------------------|
   S S    S    S  S S    S    S  E    E     E    E
|-----------------------------------------------------|
|-----------------------------------------------------|
|-----------------------------------------------------|
|-----------------------------------------------------|
|--2-2----2----2--2-2----2----2-----------------------|
|--------------------------------3----3-----2----2----|
|
|  |----------------------6:8-----------------------|
|  S    S    S    S    S    S    S  S    S  S  S    S
|-----------------------------------------------------|
|-10---12---13---10---12---13---10-12---13-10-12---13-|
|-----------------------------------------------------|
|-----------------------------------------------------|
|-----------------------------------------------------|
|-----------------------------------------------------|
|
|  |----------------------6:8-----------------------|
|  S    S    S    S    S    S    S  S    S  S  S    S
|-----------------------------------------------------|
|-13---15---17---13---15---17---13-15---17-13-15---17-|
|-----------------------------------------------------|
|-----------------------------------------------------|
|-----------------------------------------------------|
|-----------------------------------------------------|


   PM--------------------------------------------------
   S S    S    S  S S    S    S  E    E     E    E
|-----------------------------------------------------|
|-----------------------------------------------------|
|-----------------------------------------------------|
|-----------------------------------------------------|
|------------------------------------------------1----|
|--0-0----0----0--0-0----0----0--2----1-----2---------|
|
|  |----------------------6:8-----------------------|
|  S    S    S    S    S    S    S  S    S  S  S    S
|----------------12---15---12---14-12------12---------|
|-12---13---15--------------------------15----12---13-|
|-----------------------------------------------------|
|-----------------------------------------------------|
|-----------------------------------------------------|
|-----------------------------------------------------|
|
|  |----------------------6:8-----------------------|
|  S    S    S    S    S    S    S  S    S  S  S    S
|----------------15---19---15---17-15---14----11---12-|
|-15---17---19-----------------------------17---------|
|-----------------------------------------------------|
|-----------------------------------------------------|
|-----------------------------------------------------|
|-----------------------------------------------------|


 ------------------------------------------------------------------------------------------|
   S  S    S       S     S  S    S       S     E           E                  E            E
|------------------------------------------------------------------------------------------------|
|------------------------------------------------------------------------------------------------|
|------------------------------------------------------------------------------------------------|
|------------------------------------------------------------------------------------------------|
|--2--2----2-------2-----2--2----2-------2-----3-----------2-------------------------------------|
|-----------------------------------------------------------------------------3------------2-----|
|
|                                              ~~~~~~~~~~~~~~~~~~~~~~~~~~~~~~~~~~~~~~~~~~~~~~~
|  |----------------------------------------------6:8-------------------------------------------|
| S     S       S       S     S       S       S       +S      +S        +S      +S        +S
|----------------------------------------------------------------------------------------------|
|-15----13----12-------------------------------------------------------------------------------|
|-------------------14----12------11------12------(12)-------(12)------(12)------(12)-----(12)-|
|----------------------------------------------------------------------------------------------|
|----------------------------------------------------------------------------------------------|
|----------------------------------------------------------------------------------------------|
|
|                                           ~~~~~~~~~~~~~~~~~~~~~~~~~~~~~~~~~~~~~~~~~~~~~~~~~~
|    |------------------------------------------6:8-------------------------------------------|
|  S  S       S       S     S       S       S  +S          +S        +S         +S        +S
|-14-12------11---------------------------------------------------------------------------------|
|------------------13----12------10------12----(12)--------(12)------(12)------(12)-----(12)----|
|-----------------------------------------------------------------------------------------------|
|-----------------------------------------------------------------------------------------------|
|-----------------------------------------------------------------------------------------------|
|-----------------------------------------------------------------------------------------------|


       PM----------------------------------------
       S         S  S  S   S    S   S S E E E E
|-----------------------------------------------|
|-----------------------------------------------|
|-----------------------------------------------|
|-----------------------------------------------|
|---------------------------------------------1-|
|------0---------0--0--0---0----0---0-0-2-1-2---|
|
|                      ~~~~~~~~~~~~~~~
|  E  +E         E  E  E  +E   +E   E
|-----------------------------------------------|
|-15-(15)b17.5r=15-12---------------------------|
|---------------------12-(12)-(12)-11-----------|
|-----------------------------------------------|
|-----------------------------------------------|
|-----------------------------------------------|


 ------------------------------------|
  S   S  S  S  S  S   S    S   E E E E
|-----------------------------------------|
|-----------------------------------------|
|-----------------------------------------|
|-----------------------------------------|
|-2---2--2--2--2--2---2----2--------------|
|------------------------------3-3-2-2----|
|
|                 ~~~~~~~
|     E  E  E  E  E  +E   +E   E
|-----------------------------------------|
|----------12-13-12-(12)-(12)-12----------|
|----12-14--------------------------------|
|-----------------------------------------|
|-----------------------------------------|
|-----------------------------------------|


   PM-------------------------------------------
   S S  S S  S S    S    S  E  E           E E
|----------------------------------------------|
|----------------------------------------------|
|----------------------------------------------|
|----------------------------------------------|
|--------------------------------------------1-|
|--0-0--0-0--0-0----0----0--2--1-----------2---|
|
|            |----3----|    |------6-------|
|  E    E    E    E    E    E  E  E  E  E  E
|----------------------------------------------|
|-13---15---12---13---15---15-17-19-17-15------|
|-----------------------------------------17---|
|----------------------------------------------|
|----------------------------------------------|
|----------------------------------------------|


 ------------------------------------------|
   S        S  S  S        S   S S S E E E E
|-----------------------------------------------|
|-----------------------------------------------|
|-----------------------------------------------|
|-----------------------------------------------|
|--2--------2--2--2--------2---2-2-2-3-2--------|
|----------------------------------------3-2----|
|
|                 ~~~~~~~~~~~~
|  q        E  E  E  +E   +E   E
|----------------19-(19)-(19)-------------------|
|-18b20.5r=19-17--------------17----------------|
|-----------------------------------------------|
|-----------------------------------------------|
|-----------------------------------------------|
|-----------------------------------------------|


   PM--------------------------------------------
   S S  S S    S    S S    S  E    E     E    E
|-----------------------------------------------|
|-----------------------------------------------|
|-----------------------------------------------|
|-----------------------------------------------|
|---------------------------------------------1-|
|--0-0--0-0----0----0-0----0--2----1-----2------|
|
|       |----3----|      |---3---|    |--3--|
|  Q    E    E    E      E    E  E    E  E  E
|-19---17---17---17-----15---15-15---14-14-14---|
|-----------------------------------------------|
|-----------------------------------------------|
|-----------------------------------------------|
|-----------------------------------------------|
|-----------------------------------------------|
|
|-----------------------------------------------|
|-----------------------------------------------|
|-----------------------------------------------|
|-----------------------------------------------|
|-----------------------------------------------|
|-----------------------------------------------|


 --------------------------------------------------------------|
   S S    S    S  S    S     S    S     E        E        E     E
|---------------------------------------------------------------------|
|---------------------------------------------------------------------|
|---------------------------------------------------------------------|
|---------------------------------------------------------------------|
|--2-2----2----2--2----2-----2----2-----------------------------------|
|---------------------------------------3--------3--------2-----2-----|
|
|  |----3----|    |------3------|       |-----3-----|     |---3----|
|  E    E    E    E       E     E       E     E     E     E  E     E
|---------------------------------------------------------------------|
|-17---17---17---16------16----16------13----13----13----12-12----12--|
|---------------------------------------------------------------------|
|---------------------------------------------------------------------|
|---------------------------------------------------------------------|
|---------------------------------------------------------------------|
|
|  |----3----|       |-------3-------|     |-----3-----|     |--3--|
|  E    E    E       E       E       E     E     E     E     E  E  E
|-17---17---17------15------15------15----14----14----14--------------|
|-----------------------------------------------------------17-17-17--|
|---------------------------------------------------------------------|
|---------------------------------------------------------------------|
|---------------------------------------------------------------------|
|---------------------------------------------------------------------|


   PM--------------------------------------------------
   S S    S    S  S S    S    S  E    E     E    E
|-----------------------------------------------------|
|-----------------------------------------------------|
|-----------------------------------------------------|
|-----------------------------------------------------|
|------------------------------------------------1----|
|--0-0----0----0--0-0----0----0--2----1-----2---------|
|
|  |----3----|    |----3----|    |---3---|  |---3---|
|  E    E    E    E    E    E    E  E    E  E  E    E
|-----------------------------------------------------|
|-----------------------------------------------------|
|-16---16---16---14---14---14---12-12---12-11-11---11-|
|-----------------------------------------------------|
|-----------------------------------------------------|
|-----------------------------------------------------|
|
|  |----3----|    |----3----|    |---3---|  |---3---|
|  E    E    E    E    E    E    E  E    E  E  E    E
|-----------------------------------------------------|
|-16---16---16---13---13---13---12-12---12------------|
|------------------------------------------16-16---16-|
|-----------------------------------------------------|
|-----------------------------------------------------|
|-----------------------------------------------------|


 -----------------------------------------------|
   S S    S    S  S S    S    S  E      E     E E
|---------------------------------------------------|
|---------------------------------------------------|
|---------------------------------------------------|
|---------------------------------------------------|
|--2-2----2----2--2-2----2----2--3------2-----------|
|---------------------------------------------3-2---|
|
|                                ~~~~~~~~~~
|  |----3----|    |----3----|
|  E    E    E    E    E    E    E     +Q
|---------------------------------------------------|
|---------------------------------------------------|
|---------------------------------------------------|
|-14---14---14---13---13---13-----------------------|
|-------------------------------14----(14)----------|
|---------------------------------------------------|
|
|  |----3----|    |----3----|    |----3-----|
|  E    E    E    E    E    E    E  E       E
|---------------------------------------------------|
|---------------------------------------------------|
|-14---14---14---12---12---12---11-11------11-------|
|---------------------------------------------------|
|---------------------------------------------------|
|---------------------------------------------------|


  Gtrs I, II
  E E +Q   +Q   +Q     E E +Q   +Q   +Q     E E +Q   +Q   +Q
|--------------------|--------------------|----------------------|
|--------------------|--------------------|----------------------|
|--------------------|--------------------|----------------------|
|--------------------|--------------------|----------------------|
|-2-2-(x)--(x)--(x)--|-2-2-(x)--(x)--(x)--|-2-2-(x)--(x)--(x)----|
|-0-0-(x)--(x)--(x)--|-0-0-(x)--(x)--(x)--|-0-0-(x)--(x)--(x)----|


  Gtr II
   PM     PM    PM ~~~~~~~
   E E e  E  E  E  E  +E
|----------------------------|
|----------------------------|
|----------------------------|
|----5-------5---------------|
|--7------7-----6--7--(7)----|
|------0---------------------|
|
| Gtr I
|  PM  PM|   ~~~PM ~~
|  E E e  E  E  E  E  +E
|----------------------------|
|----------------------------|
|----------------------------|
|----9------[9]--------------|
|-10-----10-----9-10-(10)----|
|------0---------------------|


    Gtrs I, II
    PM|         ~~~~  PM|         ~~~~~~
    E E E E E E E E   E E E E E E E +E
||------------------|-------------------|
||o-----------------|-------------------|
||------------------|-------------------|
||------------5-----|-----------5-------|
||o-----7-6-7---7-6-|-----7-6-7---6-(6)-|
||--0-0-------------|-0-0---------------|


  PM|         ~~~~  PM  PM|   PM~~~~~~
  E E E E E E E E   E E E E E E E +E
|-----------------|---------------------||
|-----------------|--------------------o||
|-----------------|---------------------||
|-----------5-----|---6-----5-----------||
|-----7-6-7---6-7-|-7-----7---6-7-(7)--o||
|-0-0-------------|-----0---------------||


  PM|      PM|       PM|               PM|      PM|       PM|         ~~~~~~
  E E  E E E E E E   E E E E E E E E   E E  E E E E E E   E E E E E E E +E
|------------------|-----------------|------------------|-------------------|
|------------------|-----------------|------------------|-------------------|
|------------------|-----------------|------------------|-------------------|
|-----10S9-----7S9-|-----------------|-----10S9-----7S9-|-------------------|
|------8-7-----5-7-|-----5-7-8-7-5h7-|------8-7-----5-7-|-----7-8-7-5-4-(4)-|
|-0-0------0-0-----|-0-0-------------|-0-0------0-0-----|-0-0---------------|


  PM|      PM|       PM|               PM|      PM|       PM|           ~~~~~~~
  E E  E E E E E E   E E E E E E E E   E E  E E E E E E   E E E E  E E  E  +E
|------------------|-----------------|------------------|----------------------|
|------------------|-----------------|------------------|----------------------|
|------------------|-----------------|------------------|----------------------|
|-----10S9-----7S9-|-----------------|-----10S9-----7S9-|----------------------|
|------8-7-----5-7-|-----5-7-8-7-5h7-|------8-7-----5-7-|-----8-7--------------|
|-0-0------0-0-----|-0-0-------------|-0-0------0-0-----|-0-0-----10-9-10-(10)-|


    PM-------------------------------------------------
    S S S S S S S S E E E E   S S S S S S S S E E E E
||--------------------------|-------------------------|
||o-------------------------|-------------------------|
||--------------------------|-------------------------|
||--------------------------|-------------------------|
||o-----------------------1-|-2-2-2-2-2-2-2-2---------|
||--0-0-0-0-0-0-0-0-2-1-2---|-----------------3-3-2-2-|


 -------------------------------------------------|
  S S S S S S S S E E E E   S S S S S S S S E E E E
|-------------------------|--------------------------||---|
|-------------------------|-------------------------o||---|
|-------------------------|--------------------------||---|
|-------------------------|--------------------------||---|
|-----------------------1-|-2-2-2-2-2-2-2-2-3-2-----o||---|
|-0-0-0-0-0-0-0-0-2-1-2---|---------------------3-2--||---|


    E +E  E E E E E E   E E +E  E E +E  E +E
||--------------------|-----------------------|
||o-------------------|-----------------------|
||--------------------|-----------------------|
||--2-(2)-----0S2---4-|-----------5-(5)-------|
||o-2-(2)-----0S2---2-|---3-(3)---3-(3)-5-(5)-|
||--0-(0)-0-0-----0---|-0-1-(1)-0-------3-(3)-|


  E +E  E E E E E E   E E +E  E E +E  E +E
|-------------------|-----------------------||
|-------------------|----------------------o||
|-------------------|-----------------------||
|-2-(2)-----0S2---4-|-----------------------||
|-2-(2)-----0S2---2-|---3-(3)---5-(5)-5-(5)o||
|-0-(0)-0-0-----0---|-0-1-(1)-0-3-(3)-3-(3)-||


  PM----|   PM--|     PM--|   PM------------|   PM--------------------|
  E E E E E E E E   E E E E E E E E   E E E E E E E E   E E E E E E E E
|-----------------|-----------------|-----------------|-----------------|
|-----------------|-----------------|-----------------|-----------------|
|-----------------|-----------------|-----------------|-----------------|
|-----------------|-----------------|-----------------|-----------------|
|-----------------|-----------------|-----------------|-2-2-2-2---------|
|-0-0-0-0-2S3-3-3-|-7S1-1-1-8S3-3-3-|-0-0-0-0-2S3-3-3-|---------3-3-2-2-|


  PM----|   PM--|     PM--|   PM------------|   PM--------------------|
  E E E E E E E E   E E E E E E E E   E E E E E E E E   E E E E E E E E
|-----------------|-----------------|-----------------|-----------------|
|-----------------|-----------------|-----------------|-----------------|
|-----------------|-----------------|-----------------|-----------------|
|-----------------|-----------------|-----------------|-----------------|
|-----------------|-----------------|-----------------|-2-2-2-2-3-2-----|
|-0-0-0-0-2S3-3-3-|-7S1-1-1-8S3-3-3-|-0-0-0-0-2S3-3-3-|-------------3-2-|


  Gtrs I, II
  E E +Q   +Q   +Q     E E +Q   +Q   +Q     E E +Q   +Q   +Q
|--------------------|--------------------|----------------------|
|--------------------|--------------------|----------------------|
|--------------------|--------------------|----------------------|
|--------------------|--------------------|----------------------|
|-2-2-(x)--(x)--(x)--|-2-2-(x)--(x)--(x)--|-2-2-(x)--(x)--(x)----|
|-0-0-(x)--(x)--(x)--|-0-0-(x)--(x)--(x)--|-0-0-(x)--(x)--(x)----|


  Gtr II
   PM     PM    PM ~~~~~~~~
   E E e  E  E  E  E  +H
|-----------------------------|
|-----------------------------|
|-----------------------------|
|----5-------5----------------|
|--7------7-----6--7--(7)\----|
|------0----------------------|
|
| Gtr I
|  PM  PM|   ~~~PM ~~
|  E E e  E  E  E  E  +H
|-----------------------------|
|-----------------------------|
|-----------------------------|
|----9------[9]---------------|
|-10-----10-----9-10-(10)\----|
|------0----------------------|


Duration Legend
---------------
W - whole; H - half; Q - quarter; E - 8th; S - 16th; T - 32nd; X - 64th; a - acciaccatura
+ - note tied to previous; . - note dotted; .. - note double dotted
Uncapitalized letters represent notes that are staccato (1/2 duration)
Irregular groupings are notated above the duration line
Duration letters will always appear directly above the note/fret number it represents the
duration for.  Duration letters with no fret number below them represent rests.  Multi-
bar rests are notated in the form Wxn, where n is the number of bars to rest for.  Low
melody durations appear below the staff

Tablature Legend
----------------
 h   - hammer-on
 p   - pull-off
 b   - bend
 pb  - pre-bend
 r   - bend release (if no number after the r, then release immediately)
 /\  - slide into or out of (from/to "nowhere")
 s   - legato slide
 S   - shift slide
  - natural harmonic
[n]  - artificial harmonic
n(n) - tapped harmonic
 ~   - vibrato
 tr  - trill
 T   - tap
 TP  - trem. picking
 PM  - palm muting
\n/  - tremolo bar dip; n = amount to dip
 \n  - tremolo bar down
 n/  - tremolo bar up
/n\  - tremolo bar inverted dip
 =   - hold bend; also acts as connecting device for hammers/pulls
 <>  - volume swell (louder/softer)
 x   - on rhythm slash represents muted slash
 o   - on rhythm slash represents single note slash

Misc Legend
-----------
 |  - bar
||  - double bar
||o - repeat start
o|| - repeat end
*|  - double bar (ending)
 :  - bar (freetime)
 $  - Segno
 &  - Coda
Tempo markers -  = BPM(8/16=s8/s16), where s8 = swing 8ths, s16 = swing 16ths


***************************************************************************************
* Generated using Power Tab Editor by Brad Larsen - http://powertab.guitarnetwork.org *
***************************************************************************************
Tap to rate this tab
 
# A B C D E F G H I J K L M N O P Q R S T U V W X Y Z