Song name
# A B C D E F G H I J K L M N O P Q R S T U V W X Y Z

Tankard - Galow tab

eb|-------------------------------------------------------------------------|
Bb|-------------------------------------------------12-13-12----12----------|
Gb|-----11-12-14-12-11----11-12----11-12---11-12-14----------14----14-12-11-|
Db|--14----------------14-------14-------14---------------------------------|
Ab|-------------------------------------------------------------------------|
Eb|-------------------------------------------------------------------------|


eb|-------------------------------------------------------------------------|
Bb|-------------------------------------------------------------------------|
Gb|-----11-12-14-12-11----11-12----11-12----11-12-14-12-11------------------|
Db|--14----------------14-------14-------14----------------14-12------------|
Ab|--------------------------------------------------------------15-14~-----|
Eb|-------------------------------------------------------------------------|


eb|-------------------------------------------------------------------------|
Bb|-------------------------------------------------12-13-12----12----------|
Gb|-----11-12-14-12-11----11-12----11-12---11-12-14----------14----14-12-11-|
Db|--14----------------14-------14-------14---------------------------------|
Ab|-------------------------------------------------------------------------|
Eb|-------------------------------------------------------------------------|


eb|-----------------------------------------------------------------------------|
Bb|--------------------------------------------------12-13-15-13-12-------------|
Gb|-----11-12-14-12-11----11-12----11-12----11-12-14----------------14-12-11----|
Db|--14----------------14-------14-------14----------------------------------14~|
Ab|-----------------------------------------------------------------------------|
Eb|-----------------------------------------------------------------------------|



eb|-------------------------------------------------------|
Bb|-------------------------------------------------------|
Gb|--11-12b-----------------9-11-12-12-11-9---------------|
Db|----------10~----9-10-12------------------12-10-9--4*~-|
Ab|-------------------------------------------------------|
Eb|-------------------------------------------------------|

eb|----------------------------------------------------------------------------|
Bb|------------------------10-12b~---12h13p12----12----------------------------|
Gb|----------------9-11-12--------------------14----14-12h14p12s11h12p11-------|
Db|---------7-9-10-------------------------------------------------------------|
Ab|--7-9-10--------------------------------------------------------------15p14~|
Eb|----------------------------------------------------------------------------|
Tap to rate this tab
 
# A B C D E F G H I J K L M N O P Q R S T U V W X Y Z