Song name
# A B C D E F G H I J K L M N O P Q R S T U V W X Y Z

Tankcsapda - Az Let A Legjobb M Reg tab

Help us improve GuitareTab! Take a short survey!
Highlighted       Show chord diagrams
Bevezet:
  E |0--0--2---2-32-00--0--2----------|
  H |2--1--3---3-33-32--1--3----------|
  G |2--0--2---2-22-22--0--2----------|
  D |2--2--0---0-00-02--2--0----------|
  A |0--3--0---0-00-00--3--0----------|
  E |---------------|-----------------|


-2-32-00--0--2---2-32-00--0--2---2-32-2-|
-3-33-32--1--3---3-33-32--1--3---3-33-3-|
-2-22-22--0--2---2-22-22--0--2---2-22-2-|
-0-00-02--2--0---0-00-02--2--0---0-00-0-|
-0-00-00--3--0---0-00-00--3--0---0-00-0-|
|---------------|-----------------------|


  e |2--2--2---2-32-00--0--3--------|
  H |3--3--3---3-33-33--3--3--------|
  G |2--2--2---2-22-22--2--2--------|
  D |0--0--0---0-00-00--0--0--------|
  A |0--3--0---0-00-00--0--0--------|
  E |---------------|---------------|


Verse:
-Els kt versszak akkordokkal, tbbi kvintekkel-

      A             \
Egy szemtdombra szltek
   A            \
De k is kikszltek
       C             \
Nincs semmim, nincs helyem
        D                    \
Csak a fejem, hogy a falba verjem

n gonoszabb leszek mint az rdg
Ha eszembe jut beprgk
Mint a kerk, meg a kormny
Meg a mindenhat kormny

Meg a kurvm, aki sohase nedves
De hozzm mindig kedves
Bevesz mint egy vrat
n meg beleeresztem a trat

Mer'  a csajom, aki ha elkap
Elintz egybl
Nlam van mita meglpett
Az intzetbl

Ez nem New York, nem Los Angeles
Ha belemgy jobb, ha tudod mi lesz
Nappal az gy, jjel az utca
A kok rusok sszes cucca

A stukker a zsaru kezben
Egy msik banda kereszttzben
Nem lennk a helyedben
Mikor goly lesz a fejedben

Mint a prdiktor a tvben
Fasizmus van e vrben
vlt a szemn ltszik
 is gy hisz, ahogy a ncik

A kop, ha vrszagot rez
Elszr t, aztn krdez
Az id j de rossz a hely
Dugd fel a botodat magadnak, seggfej

||:  C  A  D  \  :||

Ez dzsungel, ez brtn
A negyventsmet tltm
Ez az lom, ez az let
Lehet, hogy most r vget

Ha gitrt fognl, n szlok
Tnj el innen, nem a te dolgod
Csak szemtdomb, csak disznl
Ez a szanaszt baszott rock and roll

Le az utcra ki a trre
Senki se lkhet flre
Patkny vagyok, de nem freg
Az let a legjobb mreg

ref.:

A  C  D   \
       Az let a legjobb mreg
A  C  D   \
       Az let a legjobb mreg
A  C  D   \
       Az let a legjobb mreg
A  C  D   D - C#m = C

Hm  \   \   \
D  \   \   \
Hm  \   \   \
D  \   E   \
        Az let a legjobb mreg
Hm  D  E   \
        Az let a legjobb mreg
Hm  D  E   \
        Az let a legjobb mreg
Hm  D  E   \
        Az let a legjobb mreg
Hm  D  E   \
        Az let a legjobb mreg

A  C       D            \
Related for Az Let A Legjobb M Reg tab