Song name
# A B C D E F G H I J K L M N O P Q R S T U V W X Y Z

Tantric - Foresight tab

Half Step Down
D-A-D-G-B-E

E----------------------------------------|
B----------------------------------------|
G----------------------------------------|
D------(5)-5-----------------------------|
A--5-5-------0-3p0-5---------------------|
D----------------------------------------|

E----------------------------------------|
B----------------------------------------|
G-------7---10---------------------------|
D-------7---10---------------------------|
A-------5---8----------------------------|
D--0-0-----------------------------------|
Tap to rate this tab
# A B C D E F G H I J K L M N O P Q R S T U V W X Y Z