Song name
# A B C D E F G H I J K L M N O P Q R S T U V W X Y Z

Tantric - Live Your Life tab

TANTRIC
Track 02-Live Your Life (Down)
Transcribed by: Rob "Fetus" Torrey 
Email: fetusinchains@aol.com
*Not my tab, Just borrowing it* - Courchesne
Half Step Down
D-A-D-G-B-D

Intro/Verse
D-------------------------------------------------------|
B-------------------------------------------------------|
G-------------------------------------------------------|
D----2--4---5---7----0--5---4---0-----------------------|
A---2---------------0-----------------------------------|
D--2------2---0----0------0---0-------------------------|

Fill
D-------------------------------------------------------|
B-------------------------------------------------------|
G-------------------------------------------------------|
D--2--0-0-0---------------------------------------------|
A--2--0-0-0---------------------------------------------|
D--2--0-0-0---------------------------------------------|

Chorus
D-------------------------------------------------------|
B-------------------------------------------------------|
G-------------------------------------------------------|
D--2-2--5-5--7-7--10-12----2-2--5-5--3-3-3-3-3-3-3-3----|
A--2-2--5-5--7-7--10-12----2-2--5-5--3-3-3-3-3-3-3-3----|
D--2-2--5-5--7-7--10-12----2-2--5-5--3-3-3-3-3-3-3-3----|

D-------------------------------------------------------|
B-------------------------------------------------------|
G-------------------------------------------------------|
D--2-2--5-5--7-7--10-12----2-2--5-5--3-3----------------|
A--2-2--5-5--7-7--10-12----2-2--5-5--3-3----------------|
D--2-2--5-5--7-7--10-12----2-2--5-5--3-3----------------|

Bridge
D--------------------------------------------------------|
B--------------------------------------------------------|
G--------------------------------------------------------|
D--2-0-2-7-5--8-7----7-5-2-0--2-0-2-7-5--8-7--8-7-5-2-0--|x3
A--2-0-2-7-5--8-7----7-5-2-0--2-0-2-7-5--8-7--8-7-5-2-0--|
D--2-0-2-7-5--8-7----7-5-2-0--2-0-2-7-5--8-7--8-7-5-2-0--|

D----------------------------------------------------|
B----------------------------------------------------|
G----------------------------------------------------|
D--2-0-2-7-5--8-7----7-5-2-0--2-0-2-7-5--8-7--3-3-5--|
A--2-0-2-7-5--8-7----7-5-2-0--2-0-2-7-5--8-7--3-3-5--|
D--2-0-2-7-5--8-7----7-5-2-0--2-0-2-7-5--8-7--3-3-5--|

Intro/Verse x10
Fill
Verse x3
Chorus
Verse x10
Fill
Verse x3
Chorus
Bridge x2
Verse x13
Tap to rate this tab
# A B C D E F G H I J K L M N O P Q R S T U V W X Y Z