Guitaretab - guitar tabs
Song name
# A B C D E F G H I J K L M N O P Q R S T U V W X Y Z

Tantric - Love Song tab

Tantric

Love Song

Intro x2
e-----------------------------------------------------------|
B-----------------------------------------------------------|
G--------------------7--7---9-------------------7--7---9----|
D----6---7--9--10----7--7---9---6---7--9--10----7--7---9----|
A----6---7--9--10----5--5---7---6---7--9--10----5--5---7----|
D----6---7--9--10---------------6---7--9--10----------------|
x1
e------------------|
B------------------|
G------------------|
D---6---7--910~---|
A---6---7--910~---|
D---6---7--910~---|

Verses x2
e----------------------------------------------------------|
B----------------------------------------------------------|
G7-7xx-7-7x-7~7-7xx-7x-55xx-55x5~55xx-55x-------7---------|
D7-7xx-7-7x-7~7-7xx-7x-55xx-55x5~55xx-55x-------7---------|
A5-5xx-5-5x-5~4-4xx-4x-33xx-33x3~22xx-22x-2~3~4~5---------|
D----------------------------------------------------------|

x4
e----------------------------------------------------------|
B----------------------------------------------------------|
G--------------------7--7---9-------------------7--7---9---|
D----6---7--9--10----7--7---9---6---7--9--10----7--7---9---|
A----6---7--9--10----5--5---7---6---7--9--10----5--5---7---|
D----6---7--9--10---------------6---7--9--10---------------|

Chorus x2
e-------------------------------------------------------|
B-------------------------------------------------------|
G----7-7-7-7----7-7-7-7----9-9-9-9---10-10-10-10--------|
D----7-7-7-7----7-7-7-7----9-9-9-9---10-10-10-10--------|
A----5-5-7-7----7-7-7-7----7-7-7-7---10-10-10-10--------|
D----5-5-5-5----7-7-7-7--------------10-10-10-10--------|
[ Tab from: http://www.guitaretab.com/t/tantric/167934.html ]
Verses x4
e-------------------------------------------------------|
B-------------------------------------------------------|
G7-7xx-7-7x-7~7-7xx-7x-55xx-55x5~55xx-55x-------7------|
D7-7xx-7-7x-7~7-7xx-7x-55xx-55x5~55xx-55x-------7------|
A5-5xx-5-5x-5~4-4xx-4x-33xx-33x3~22xx-22x-2~3~4~5------|
D-------------------------------------------------------|

x4
e----------------------------------------------------------|
B----------------------------------------------------------|
G--------------------7--7---9-------------------7--7---9---|
D----6---7--9--10----7--7---9---6---7--9--10----7--7---9---|
A----6---7--9--10----5--5---7---6---7--9--10----5--5---7---|
D----6---7--9--10---------------6---7--9--10---------------|

Chorus x2
e-------------------------------------------------------|
B-------------------------------------------------------|
G----7-7-7-7----7-7-7-7----9-9-9-9---10-10-10-10--------|
D----7-7-7-7----7-7-7-7----9-9-9-9---10-10-10-10--------|
A----5-5-7-7----7-7-7-7----7-7-7-7---10-10-10-10--------|
D----5-5-5-5----7-7-7-7--------------10-10-10-10--------|

Verses
e-------------------------------------------------------|
B-------------------------------------------------------|
G7-7xx-7-7x-7~7-7xx-7x-55xx-55x5~55xx-55x-------7------|
D7-7xx-7-7x-7~7-7xx-7x-55xx-55x5~55xx-55x-------7------|
A5-5xx-5-5x-5~4-4xx-4x-33xx-33x3~22xx-22x-2~3~4~5------|
D-------------------------------------------------------|

Chorus x2
e-------------------------------------------------------|
B-------------------------------------------------------|
G----7-7-7-7----7-7-7-7----9-9-9-9---10-10-10-10--------|
D----7-7-7-7----7-7-7-7----9-9-9-9---10-10-10-10--------|
A----5-5-7-7----7-7-7-7----7-7-7-7---10-10-10-10--------|
D----5-5-5-5----7-7-7-7--------------10-10-10-10--------|
Related for Love Song tab