Song name
# A B C D E F G H I J K L M N O P Q R S T U V W X Y Z

Tantric - Junkyard tab

Half Step Down
D-A-D-G-B-E

Intro/Verse (Part A)
E--------------------------------------------|
B--------------------------------------------|
G--------------------------------------------|
D------0-----0-----0-----0--3p0--------------|
A----5-----5-----5-----5---------3-----------|
D--5-----8-----3-----3-----------------------|

Intro (Part B)
E--------------------------------------------|
B--------------------------------------------|
G--------------------------------------------|
D------0-----0-----0-----0--3p0---7----------|
A----5-----5-----5-----5---------------------|
D--5-----8-----3-----3-----------------------|

Fill
E--------------------------------------------|
B--------------------------------------------|
G--------7--5-----------0--------5--7--------|
D------5----------3---3--------5-------------|
A----5----------5---5--------5---------------|
D--5----------3------------5-----------------|

Chorus
E--------------------------------------------|
B--------------------------------------------|
G--------------------------------------------|
D--5--8--10--0-0-----------------------------|
A--5--8--10--0-0-----------------------------|
D--5--8--10--0-0-----------------------------|
	     pm..

Intro A-B-A-B-A-B-A-B
Verse A x4
Pre-Chorus A-B-A-B
Fill
Chorus x4
Intro A-B-A-B
Verse A x4
Pre-Chorus A-B-A-B
Fill
Chorus x8
Intro A-B-A-B
Verse A x4
Tap to rate this tab
 
# A B C D E F G H I J K L M N O P Q R S T U V W X Y Z