Song name
# A B C D E F G H I J K L M N O P Q R S T U V W X Y Z

Tantric - Desert Me tab

Okay, so I'm not sure if I have the ends of each line right, but it's close.
Please if I get it wrong tell me what it is so I can update it.

e|---------------------------------------------------------------------|
b|---------------------------------------------------------------------|
g|---------------------------------------------------------------------|
d|------------0-------------------------------------0---------0--------|
a|------0h3-------------3h5p3---------0---------5----------7---------7-|
d|--0---------------0------------0----------5-----------7---------7----|

e|---------------------------------------------------------------------|
b|---------------------------------------------------------------------|
g|---------------------------------------------------------------------|
d|------------0-------------------------------------0---------0--------|
a|------0h3-------------3h5p3---------0---------5----------7---------5-|
d|--0---------------0------------0----------5-----------7---------5----|
Tap to rate this tab
# A B C D E F G H I J K L M N O P Q R S T U V W X Y Z