Song name
# A B C D E F G H I J K L M N O P Q R S T U V W X Y Z

Tantric - Mourning tab

Tantric - Mourning

Tuning: Eb Ab Db F Bb Eb)

Intro:
Eb---0--0--0--0--0---|
Bb---0--0--0--0--0---|
F----0--0--0--0--0---|
Db---9--7--2--5--7---|
Ab---9--7--2--5--7---|
Eb---7--5--0--3--5---|

Vers:
Eb----0---0-----|
Bb----3---7-----|
F-----3---7-----|
Db----0---0-----|
Ab----2---5-----|
Eb----3---7-----|

Pre-C:
Eb----0-----0-----|
Bb----5-----3-----|
F-----5-----3-----|
Db----0-----0-----|
Ab----4-----2-----|
Eb----5-----3-----|

Chorus
Eb---0--0--0--0---      ---0--0--0--0---|
Bb---0--0--0--0---      ---7--5--3--3---|
F----8--7--3--5---  or  ---7--5--3--3---|
Db---0--0--0--0---      ---0--0--0--0---|
Ab---9--7--4--5---      ---5--4--0--2---|
Eb---7--5--2--3---      ---7--5--2--3---|

//Fredrik Forell
  fredrik_forell@hotmail.com
Tap to rate this tab
# A B C D E F G H I J K L M N O P Q R S T U V W X Y Z