Song name
# A B C D E F G H I J K L M N O P Q R S T U V W X Y Z

Tantric - The Past Is The Past tab

The Past Is The Past - Tantric
Tuning : C# Standard

 Acoustic Guitar
S S S S S S S S S S S S S S S S
C#||------------------------------------|
G#||------------------------0---0---0---|
E ||----------------------1---1---------|
B ||----------2---------2---------2-----|
F#||--------0---------0-----------------|
C#||--0-2-4-----0-2-4-------------------|


E E. S S S E S S S E.
------------------------------------------------||
-----0---0-0-0----------0--0--0---------------0-||
-----1---1-1-1------2---1--1--1---2----4---2--1-||
-----2---2-2-2------4---2--2--2---4----6---4--2-||
-----2---2-2-2----------2--2--2---------------2-||
--0---------------------------------------------||

I haven't figured out the other guitar or solo yet so if someone

can help me figure it out that would be great and make this tab

tab better please
Tap to rate this tab
# A B C D E F G H I J K L M N O P Q R S T U V W X Y Z