Song name
# A B C D E F G H I J K L M N O P Q R S T U V W X Y Z

Tanya Markova - Disney tab

Disney - Tanya Markova


Tabbed By: Pauz Prima (primesenthyx@yahoo.com)

-----------------------------------------------------------------------------------------------

cnxa na, solo lang.hehe!

SOLO:

|-----------------------------------------------------10-------------|
|-/12-12-12\10-10po8-8~-10/12-10\8-8~~---8-8~---8-10b----8~~---------|
|-------------------------------------/9-----/9--------------7/9-7~~-|
|--------------------------------------------------------------------|
|--------------------------------------------------------------------|
|--------------------------------------------------------------------|

|----------------------------------------------------12-14-15~-15\\-|
|----------------------------13po12-13po12-15po13-15----------------|
|-14po12----12-14po12-14po12----------------------------------------|
|--------14---------------------------------------------------------|
|-------------------------------------------------------------------|
|-------------------------------------------------------------------|

|-----------------------10/12-10-12-10-12/17-15-17-15~~-|
|-----------8/10-8-10-8---------------------------------|
|-7/9-7-9-7---------------------------------------------|
|-------------------------------------------------------|
|-------------------------------------------------------|
|-------------------------------------------------------|


/ - slide up
\ - slide down
~ - let ring
b - bend
po - pulloff

----------------------------------------------------------------------------------------

SenthyX Zone
Senthyx Band
Tap to rate this tab
# A B C D E F G H I J K L M N O P Q R S T U V W X Y Z