Song name
# A B C D E F G H I J K L M N O P Q R S T U V W X Y Z

Tanya Markova - Linda Blair tab

SOLO:
e-----------------------------------------------------------|
b------8---10------8----10----10---10s11--10--10---8------6-|
g-----------------------------------------------------------|
d---10---------10-------------------------------------------|
a-----------------------------------------------------------|
e-----------------------------------------------------------|

e-----------------------------------------------------------|
b--13-----13-13---6--8--8s10--10--10s11---10--8--6-6--------|
g-----------------------------------------------------------|
d-----------------------------------------------------------|
a-----------------------------------------------------------|
e-----------------------------------------------------------|


e-----------------------------------------------------------|
b-------5s6---6--5-------------6s8----6---------------------|
g----5-------------6------5----------------7----------------|
d-----------------------------------------------------------|
a-----------------------------------------------------------|
e-----------------------------------------------------------|


e--------------------------------8------8-------8-----------|
b-------8s10--10--8--6-------6------6------6----------------|
g----7------------------------------------------------------|
d-----------------------------------------------------------|
a-----------------------------------------------------------|
e-----------------------------------------------------------|


e-----8----10---11---12---12s13---12--8---------------------|
b-----6-----------------------------------------------------|
g-----------------------------------------------------------|
d-----------------------------------------------------------|
a-----------------------------------------------------------|
e-----------------------------------------------------------|

e----1----3-----5----5---3-----1----------------------------|
b-----------------------------------------------------------|
g-----------------------------------------------------------|
d-----------------------------------------------------------|
a-----------------------------------------------------------|
e-----------------------------------------------------------|

CHIME:
e--15---12----8---10----12----7----5----10------------------|
b-----------------------------------------------------------|
g-----------------------------------------------------------|
d-----------------------------------------------------------|
a-----------------------------------------------------------|
e-----------------------------------------------------------|

BASS:
e-----------------------------------------------------------|
b-----------------------------------------------------------|
g-----------------------------------------------------------|
d-----------------------------------------------------------|
a--8---5----1---3----5----0-----------3---------------------|
e-----------------------------------------------------------|
Tap to rate this tab
# A B C D E F G H I J K L M N O P Q R S T U V W X Y Z